ISO-10303-21;
HEADER;
FILE_DESCRIPTION (( 'STEP AP203' ),
    '1' );
FILE_NAME ('55403.step',
    '2021-10-08T05:15:30',
    ( '' ),
    ( '' ),
    'SwSTEP 2.0',
    'SolidWorks 2019',
    '' );
FILE_SCHEMA (( 'CONFIG_CONTROL_DESIGN' ));
ENDSEC;

DATA;
#1 = CARTESIAN_POINT ( 'NONE',  ( 4.337939471889359001E-14, -1.521544345674345592E-15, 12.42435244785438542 ) ) ;
#2 = FACE_BOUND ( 'NONE', #223, .T. ) ;
#3 = CARTESIAN_POINT ( 'NONE',  ( 1.583909697128251458E-15, -5.555607355384796239E-17, 0.4536497673658091423 ) ) ;
#4 = CARTESIAN_POINT ( 'NONE',  ( 0.0000000000000000000, 0.0000000000000000000, 0.0000000000000000000 ) ) ;
#5 = CIRCLE ( 'NONE', #118, 0.7549999999999967848 ) ;
#6 = CALENDAR_DATE ( 2021, 8, 10 ) ;
#7 = ADVANCED_FACE ( 'NONE', ( #207 ), #102, .T. ) ;
#8 = PERSON_AND_ORGANIZATION ( #187, #115 ) ;
#9 = CALENDAR_DATE ( 2021, 8, 10 ) ;
#10 = CC_DESIGN_APPROVAL ( #15, ( #168 ) ) ;
#11 = EDGE_LOOP ( 'NONE', ( #166 ) ) ;
#12 = AXIS2_PLACEMENT_3D ( 'NONE', #156, #82, #177 ) ;
#13 = CALENDAR_DATE ( 2021, 8, 10 ) ;
#14 = LOCAL_TIME ( 7, 15, 30.00000000000000000, #91 ) ;
#15 = APPROVAL ( #46, 'UNSPECIFIED' ) ;
#16 = CARTESIAN_POINT ( 'NONE',  ( 4.189777606611760026E-14, 5.661593179548465532E-33, 12.00000000000000000 ) ) ;
#17 = CARTESIAN_POINT ( 'NONE',  ( 0.0000000000000000000, 0.0000000000000000000, 0.0000000000000000000 ) ) ;
#18 = FACE_BOUND ( 'NONE', #203, .T. ) ;
#19 = CARTESIAN_POINT ( 'NONE',  ( 4.189777606611760026E-14, 5.661593179548465532E-33, 12.00000000000000000 ) ) ;
#20 = MECHANICAL_CONTEXT ( 'NONE', #164, 'mechanical' ) ;
#21 = PRODUCT_DEFINITION_FORMATION_WITH_SPECIFIED_SOURCE ( 'ANY', '', #191, .NOT_KNOWN. ) ;
#22 = VERTEX_POINT ( 'NONE', #58 ) ;
#23 = EDGE_LOOP ( 'NONE', ( #111 ) ) ;
#24 = ORIENTED_EDGE ( 'NONE', *, *, #200, .T. ) ;
#25 = EDGE_CURVE ( 'NONE', #179, #179, #57, .T. ) ;
#26 = COORDINATED_UNIVERSAL_TIME_OFFSET ( 1, 0, .AHEAD. ) ;
#27 = CALENDAR_DATE ( 2021, 8, 10 ) ;
#28 = AXIS2_PLACEMENT_3D ( 'NONE', #89, #103, #73 ) ;
#29 = CC_DESIGN_APPROVAL ( #184, ( #21 ) ) ;
#30 = DATE_AND_TIME ( #13, #186 ) ;
#31 = EDGE_CURVE ( 'NONE', #195, #195, #99, .T. ) ;
#32 = FACE_OUTER_BOUND ( 'NONE', #201, .T. ) ;
#33 = AXIS2_PLACEMENT_3D ( 'NONE', #127, #67, #205 ) ;
#34 = CYLINDRICAL_SURFACE ( 'NONE', #221, 0.9999999999999988898 ) ;
#35 = DIRECTION ( 'NONE',  ( 3.491481338843133355E-15, -1.224646799147353207E-16, 1.000000000000000000 ) ) ;
#36 = FACE_OUTER_BOUND ( 'NONE', #215, .T. ) ;
#37 = CIRCLE ( 'NONE', #33, 1.000000000000000888 ) ;
#38 = PERSON_AND_ORGANIZATION_ROLE ( 'design_supplier' ) ;
#39 = CC_DESIGN_PERSON_AND_ORGANIZATION_ASSIGNMENT ( #8, #40, ( #167 ) ) ;
#40 = PERSON_AND_ORGANIZATION_ROLE ( 'creator' ) ;
#41 = CARTESIAN_POINT ( 'NONE',  ( 1.583909697128251853E-15, 0.7549999999999936762, 0.4536497673658092533 ) ) ;
#42 = COORDINATED_UNIVERSAL_TIME_OFFSET ( 1, 0, .AHEAD. ) ;
#43 = ORIENTED_EDGE ( 'NONE', *, *, #68, .T. ) ;
#44 = ORIENTED_EDGE ( 'NONE', *, *, #200, .F. ) ;
#45 = AXIS2_PLACEMENT_3D ( 'NONE', #153, #49, #48 ) ;
#46 = APPROVAL_STATUS ( 'not_yet_approved' ) ;
#47 = CLOSED_SHELL ( 'NONE', ( #182, #161, #7 ) ) ;
#48 = DIRECTION ( 'NONE',  ( 0.0000000000000000000, 1.000000000000000000, 0.0000000000000000000 ) ) ;
#49 = DIRECTION ( 'NONE',  ( -3.491481338843133355E-15, 1.224646799147353207E-16, -1.000000000000000000 ) ) ;
#50 = DIRECTION ( 'NONE',  ( 3.491481338843133355E-15, -1.224646799147353207E-16, 1.000000000000000000 ) ) ;
#51 = CC_DESIGN_PERSON_AND_ORGANIZATION_ASSIGNMENT ( #211, #38, ( #21 ) ) ;
#52 = CARTESIAN_POINT ( 'NONE',  ( 1.326762908760390423E-13, 5.999039130647367482E-33, 38.00000000000000000 ) ) ;
#53 = DIRECTION ( 'NONE',  ( 0.0000000000000000000, 1.000000000000000000, 0.0000000000000000000 ) ) ;
#54 = CIRCLE ( 'NONE', #12, 0.7549999999999967848 ) ;
#55 = VERTEX_POINT ( 'NONE', #108 ) ;
#56 = COORDINATED_UNIVERSAL_TIME_OFFSET ( 1, 0, .AHEAD. ) ;
#57 = CIRCLE ( 'NONE', #189, 0.9999999999999970024 ) ;
#58 = CARTESIAN_POINT ( 'NONE',  ( 1.319779946082704535E-13, 0.9999999999999963363, 37.79999999999999716 ) ) ;
#59 = LOCAL_TIME ( 7, 15, 30.00000000000000000, #56 ) ;
#60 = APPROVAL_DATE_TIME ( #78, #151 ) ;
#61 = ADVANCED_FACE ( 'NONE', ( #139, #136 ), #34, .T. ) ;
#62 = COORDINATED_UNIVERSAL_TIME_OFFSET ( 1, 0, .AHEAD. ) ;
#63 = EDGE_LOOP ( 'NONE', ( #72 ) ) ;
#64 = ORIENTED_EDGE ( 'NONE', *, *, #193, .T. ) ;
#65 = PRODUCT_RELATED_PRODUCT_CATEGORY ( 'detail', '', ( #191 ) ) ;
#66 = APPROVAL_ROLE ( '' ) ;
#67 = DIRECTION ( 'NONE',  ( -3.491481338843133355E-15, 1.224646799147353207E-16, -1.000000000000000000 ) ) ;
#68 = EDGE_CURVE ( 'NONE', #128, #128, #71, .T. ) ;
#69 = CARTESIAN_POINT ( 'NONE',  ( 0.0000000000000000000, 0.0000000000000000000, 0.0000000000000000000 ) ) ;
#70 = DIRECTION ( 'NONE',  ( -3.491481338843133355E-15, 1.224646799147353207E-16, -1.000000000000000000 ) ) ;
#71 = CIRCLE ( 'NONE', #197, 0.7549999999999937872 ) ;
#72 = ORIENTED_EDGE ( 'NONE', *, *, #106, .T. ) ;
#73 = DIRECTION ( 'NONE',  ( -5.101801177184772283E-31, -1.000000000000000000, -1.436029367530481143E-16 ) ) ;
#74 = PERSON_AND_ORGANIZATION ( #187, #115 ) ;
#75 =( NAMED_UNIT ( * ) SI_UNIT ( $, .STERADIAN. ) SOLID_ANGLE_UNIT ( ) );
#76 = DIRECTION ( 'NONE',  ( 0.0000000000000000000, 0.0000000000000000000, 1.000000000000000000 ) ) ;
#77 = APPROVAL_STATUS ( 'not_yet_approved' ) ;
#78 = DATE_AND_TIME ( #6, #14 ) ;
#79 = PERSON_AND_ORGANIZATION_ROLE ( 'classification_officer' ) ;
#80 = DATE_TIME_ROLE ( 'classification_date' ) ;
#81 = APPROVAL_DATE_TIME ( #116, #15 ) ;
#82 = DIRECTION ( 'NONE',  ( -3.491481338843133355E-15, 1.224646799147353207E-16, -1.000000000000000000 ) ) ;
#83 = DIRECTION ( 'NONE',  ( 3.491481338843133355E-15, -1.224646799147353207E-16, 1.000000000000000000 ) ) ;
#84 = MANIFOLD_SOLID_BREP ( 'Corps-Déplacer/Copier1[2]', #47 ) ;
#85 = DIRECTION ( 'NONE',  ( -3.491481338843133355E-15, 1.224646799147353207E-16, -1.000000000000000000 ) ) ;
#86 = DIRECTION ( 'NONE',  ( 4.275831445896958607E-31, 1.000000000000000000, 1.224646799147353454E-16 ) ) ;
#87 = CC_DESIGN_SECURITY_CLASSIFICATION ( #168, ( #21 ) ) ;
#88 = APPLICATION_CONTEXT ( 'configuration controlled 3d designs of mechanical parts and assemblies' ) ;
#89 = CARTESIAN_POINT ( 'NONE',  ( 1.583909697128251458E-15, -5.555607355384796239E-17, 0.4536497673658091423 ) ) ;
#90 = APPROVAL_DATE_TIME ( #149, #184 ) ;
#91 = COORDINATED_UNIVERSAL_TIME_OFFSET ( 1, 0, .AHEAD. ) ;
#92 = LOCAL_TIME ( 7, 15, 30.00000000000000000, #42 ) ;
#93 = CALENDAR_DATE ( 2021, 8, 10 ) ;
#94 = EDGE_LOOP ( 'NONE', ( #24 ) ) ;
#95 = EDGE_LOOP ( 'NONE', ( #43 ) ) ;
#96 = CONICAL_SURFACE ( 'NONE', #45, 0.8000000000000009326, 0.7853981633974512766 ) ;
#97 = EDGE_LOOP ( 'NONE', ( #44 ) ) ;
#98 = PLANE ( 'NONE',  #157 ) ;
#99 = CIRCLE ( 'NONE', #217, 0.8000000000000009326 ) ;
#100 = CC_DESIGN_PERSON_AND_ORGANIZATION_ASSIGNMENT ( #74, #142, ( #21 ) ) ;
#101 = FACE_OUTER_BOUND ( 'NONE', #150, .T. ) ;
#102 = PLANE ( 'NONE',  #169 ) ;
#103 = DIRECTION ( 'NONE',  ( 3.491481338843133355E-15, -1.224646799147353207E-16, 1.000000000000000000 ) ) ;
#104 = CLOSED_SHELL ( 'NONE', ( #216, #174, #61, #121, #144 ) ) ;
#105 = DIRECTION ( 'NONE',  ( -3.491481338843133355E-15, 1.224646799147353207E-16, -1.000000000000000000 ) ) ;
#106 = EDGE_CURVE ( 'NONE', #181, #181, #54, .T. ) ;
#107 = PERSON_AND_ORGANIZATION_ROLE ( 'design_owner' ) ;
#108 = CARTESIAN_POINT ( 'NONE',  ( 4.189777606611760026E-14, 0.7549999999999952305, 12.00000000000000000 ) ) ;
#109 = CONICAL_SURFACE ( 'NONE', #28, 0.7549999999999937872, 1.029744258676649871 ) ;
#110 = DIRECTION ( 'NONE',  ( -4.275831445896958607E-31, -1.000000000000000000, -1.224646799147353207E-16 ) ) ;
#111 = ORIENTED_EDGE ( 'NONE', *, *, #106, .F. ) ;
#112 = PERSON_AND_ORGANIZATION ( #187, #115 ) ;
#113 = ORIENTED_EDGE ( 'NONE', *, *, #31, .T. ) ;
#114 =( LENGTH_UNIT ( ) NAMED_UNIT ( * ) SI_UNIT ( .MILLI., .METRE. ) );
#115 = ORGANIZATION ( 'UNSPECIFIED', 'UNSPECIFIED', '' ) ;
#116 = DATE_AND_TIME ( #27, #134 ) ;
#117 = PERSON_AND_ORGANIZATION ( #187, #115 ) ;
#118 = AXIS2_PLACEMENT_3D ( 'NONE', #141, #210, #53 ) ;
#119 = DIRECTION ( 'NONE',  ( -3.491481338843133355E-15, 1.224646799147353207E-16, -1.000000000000000000 ) ) ;
#120 = UNCERTAINTY_MEASURE_WITH_UNIT (LENGTH_MEASURE( 1.000000000000000082E-05 ), #114, 'distance_accuracy_value', 'NONE');
#121 = ADVANCED_FACE ( 'NONE', ( #209, #18 ), #96, .T. ) ;
#122 = DIRECTION ( 'NONE',  ( 0.0000000000000000000, 1.000000000000000000, 0.0000000000000000000 ) ) ;
#123 = AXIS2_PLACEMENT_3D ( 'NONE', #155, #35, #170 ) ;
#124 = ORIENTED_EDGE ( 'NONE', *, *, #25, .T. ) ;
#125 = ADVANCED_BREP_SHAPE_REPRESENTATION ( '55403', ( #160, #84, #132 ), #143 ) ;
#126 = FACE_OUTER_BOUND ( 'NONE', #131, .T. ) ;
#127 = CARTESIAN_POINT ( 'NONE',  ( 1.319779946082704535E-13, -4.629164900776995227E-15, 37.79999999999999716 ) ) ;
#128 = VERTEX_POINT ( 'NONE', #41 ) ;
#129 = DATE_AND_TIME ( #93, #59 ) ;
#130 =( NAMED_UNIT ( * ) PLANE_ANGLE_UNIT ( ) SI_UNIT ( $, .RADIAN. ) );
#131 = EDGE_LOOP ( 'NONE', ( #124 ) ) ;
#132 = AXIS2_PLACEMENT_3D ( 'NONE', #4, #76, #163 ) ;
#133 = CARTESIAN_POINT ( 'NONE',  ( 4.337939471889359001E-14, 0.9999999999999954481, 12.42435244785438542 ) ) ;
#134 = LOCAL_TIME ( 7, 15, 30.00000000000000000, #26 ) ;
#135 = ORIENTED_EDGE ( 'NONE', *, *, #68, .F. ) ;
#136 = FACE_OUTER_BOUND ( 'NONE', #94, .T. ) ;
#137 = PRODUCT_DEFINITION_SHAPE ( 'NONE', 'NONE',  #167 ) ;
#138 = DIRECTION ( 'NONE',  ( 4.275831445896957731E-31, 1.000000000000000000, 1.224646799147353454E-16 ) ) ;
#139 = FACE_OUTER_BOUND ( 'NONE', #11, .T. ) ;
#140 = CARTESIAN_POINT ( 'NONE',  ( 1.326762908760390423E-13, -4.653657836759941941E-15, 38.00000000000000000 ) ) ;
#141 = CARTESIAN_POINT ( 'NONE',  ( 4.189777606611760026E-14, -1.469576158976823947E-15, 12.00000000000000000 ) ) ;
#142 = PERSON_AND_ORGANIZATION_ROLE ( 'creator' ) ;
#143 =( GEOMETRIC_REPRESENTATION_CONTEXT ( 3 ) GLOBAL_UNCERTAINTY_ASSIGNED_CONTEXT ( ( #120 ) ) GLOBAL_UNIT_ASSIGNED_CONTEXT ( ( #114, #130, #75 ) ) REPRESENTATION_CONTEXT ( 'NONE', 'WORKASPACE' ) );
#144 = ADVANCED_FACE ( 'NONE', ( #101 ), #192, .F. ) ;
#145 = APPLICATION_PROTOCOL_DEFINITION ( 'international standard', 'config_control_design', 1994, #164 ) ;
#146 = ORIENTED_EDGE ( 'NONE', *, *, #31, .F. ) ;
#147 = APPROVAL_ROLE ( '' ) ;
#148 = APPROVAL_PERSON_ORGANIZATION ( #196, #151, #213 ) ;
#149 = DATE_AND_TIME ( #9, #92 ) ;
#150 = EDGE_LOOP ( 'NONE', ( #146 ) ) ;
#151 = APPROVAL ( #165, 'UNSPECIFIED' ) ;
#152 = SHAPE_DEFINITION_REPRESENTATION ( #137, #125 ) ;
#153 = CARTESIAN_POINT ( 'NONE',  ( 1.326762908760390423E-13, -4.653657836759941941E-15, 38.00000000000000000 ) ) ;
#154 = FACE_OUTER_BOUND ( 'NONE', #95, .T. ) ;
#155 = CARTESIAN_POINT ( 'NONE',  ( 4.337939471889359001E-14, -1.521544345674345592E-15, 12.42435244785438542 ) ) ;
#156 = CARTESIAN_POINT ( 'NONE',  ( 4.189777606611760026E-14, -1.469576158976823947E-15, 12.00000000000000000 ) ) ;
#157 = AXIS2_PLACEMENT_3D ( 'NONE', #16, #83, #110 ) ;
#158 = CC_DESIGN_PERSON_AND_ORGANIZATION_ASSIGNMENT ( #112, #107, ( #191 ) ) ;
#159 = DIRECTION ( 'NONE',  ( -4.275831445896958607E-31, -1.000000000000000000, -1.224646799147353207E-16 ) ) ;
#160 = MANIFOLD_SOLID_BREP ( 'Corps-Déplacer/Copier1[1]', #104 ) ;
#161 = ADVANCED_FACE ( 'NONE', ( #36, #172 ), #190, .T. ) ;
#162 = APPROVAL_PERSON_ORGANIZATION ( #202, #184, #147 ) ;
#163 = DIRECTION ( 'NONE',  ( 1.000000000000000000, 0.0000000000000000000, 0.0000000000000000000 ) ) ;
#164 = APPLICATION_CONTEXT ( 'configuration controlled 3d designs of mechanical parts and assemblies' ) ;
#165 = APPROVAL_STATUS ( 'not_yet_approved' ) ;
#166 = ORIENTED_EDGE ( 'NONE', *, *, #25, .F. ) ;
#167 = PRODUCT_DEFINITION ( 'UNKNOWN', '', #21, #204 ) ;
#168 = SECURITY_CLASSIFICATION ( '', '', #183 ) ;
#169 = AXIS2_PLACEMENT_3D ( 'NONE', #19, #50, #159 ) ;
#170 = DIRECTION ( 'NONE',  ( 0.0000000000000000000, -1.000000000000000000, 0.0000000000000000000 ) ) ;
#171 = CC_DESIGN_APPROVAL ( #151, ( #167 ) ) ;
#172 = FACE_OUTER_BOUND ( 'NONE', #63, .T. ) ;
#173 = DIRECTION ( 'NONE',  ( -3.491481338843133355E-15, 1.224646799147353207E-16, -1.000000000000000000 ) ) ;
#174 = ADVANCED_FACE ( 'NONE', ( #2, #126 ), #208, .T. ) ;
#175 = DIRECTION ( 'NONE',  ( 0.0000000000000000000, 1.000000000000000000, 0.0000000000000000000 ) ) ;
#176 = APPROVAL_PERSON_ORGANIZATION ( #218, #15, #66 ) ;
#177 = DIRECTION ( 'NONE',  ( 0.0000000000000000000, 1.000000000000000000, 0.0000000000000000000 ) ) ;
#178 = CC_DESIGN_DATE_AND_TIME_ASSIGNMENT ( #30, #80, ( #168 ) ) ;
#179 = VERTEX_POINT ( 'NONE', #133 ) ;
#180 = APPLICATION_PROTOCOL_DEFINITION ( 'international standard', 'config_control_design', 1994, #88 ) ;
#181 = VERTEX_POINT ( 'NONE', #194 ) ;
#182 = ADVANCED_FACE ( 'NONE', ( #154 ), #109, .T. ) ;
#183 = SECURITY_CLASSIFICATION_LEVEL ( 'unclassified' ) ;
#184 = APPROVAL ( #77, 'UNSPECIFIED' ) ;
#185 = AXIS2_PLACEMENT_3D ( 'NONE', #52, #188, #222 ) ;
#186 = LOCAL_TIME ( 7, 15, 30.00000000000000000, #62 ) ;
#187 = PERSON ( 'UNSPECIFIED', 'UNSPECIFIED', 'UNSPECIFIED', ('UNSPECIFIED'), ('UNSPECIFIED'), ('UNSPECIFIED') ) ;
#188 = DIRECTION ( 'NONE',  ( -3.491481338843133355E-15, 1.224646799147353207E-16, -1.000000000000000000 ) ) ;
#189 = AXIS2_PLACEMENT_3D ( 'NONE', #1, #105, #122 ) ;
#190 = CYLINDRICAL_SURFACE ( 'NONE', #198, 0.7549999999999952305 ) ;
#191 = PRODUCT ( '55403', '55403', '', ( #20 ) ) ;
#192 = PLANE ( 'NONE',  #185 ) ;
#193 = EDGE_CURVE ( 'NONE', #55, #55, #5, .T. ) ;
#194 = CARTESIAN_POINT ( 'NONE',  ( 4.189777606611760026E-14, 0.7549999999999952305, 12.00000000000000000 ) ) ;
#195 = VERTEX_POINT ( 'NONE', #199 ) ;
#196 = PERSON_AND_ORGANIZATION ( #187, #115 ) ;
#197 = AXIS2_PLACEMENT_3D ( 'NONE', #3, #119, #206 ) ;
#198 = AXIS2_PLACEMENT_3D ( 'NONE', #17, #85, #86 ) ;
#199 = CARTESIAN_POINT ( 'NONE',  ( 1.326762908760390423E-13, 0.7999999999999962697, 38.00000000000000000 ) ) ;
#200 = EDGE_CURVE ( 'NONE', #22, #22, #37, .T. ) ;
#201 = EDGE_LOOP ( 'NONE', ( #64 ) ) ;
#202 = PERSON_AND_ORGANIZATION ( #187, #115 ) ;
#203 = EDGE_LOOP ( 'NONE', ( #113 ) ) ;
#204 = DESIGN_CONTEXT ( 'detailed design', #88, 'design' ) ;
#205 = DIRECTION ( 'NONE',  ( 0.0000000000000000000, 1.000000000000000000, 0.0000000000000000000 ) ) ;
#206 = DIRECTION ( 'NONE',  ( 5.101801177184772283E-31, 1.000000000000000000, 1.436029367530481143E-16 ) ) ;
#207 = FACE_OUTER_BOUND ( 'NONE', #23, .T. ) ;
#208 = CONICAL_SURFACE ( 'NONE', #123, 0.9999999999999970024, 0.5235987755982890457 ) ;
#209 = FACE_OUTER_BOUND ( 'NONE', #97, .T. ) ;
#210 = DIRECTION ( 'NONE',  ( -3.491481338843133355E-15, 1.224646799147353207E-16, -1.000000000000000000 ) ) ;
#211 = PERSON_AND_ORGANIZATION ( #187, #115 ) ;
#212 = CC_DESIGN_DATE_AND_TIME_ASSIGNMENT ( #129, #214, ( #167 ) ) ;
#213 = APPROVAL_ROLE ( '' ) ;
#214 = DATE_TIME_ROLE ( 'creation_date' ) ;
#215 = EDGE_LOOP ( 'NONE', ( #135 ) ) ;
#216 = ADVANCED_FACE ( 'NONE', ( #32 ), #98, .F. ) ;
#217 = AXIS2_PLACEMENT_3D ( 'NONE', #140, #70, #175 ) ;
#218 = PERSON_AND_ORGANIZATION ( #187, #115 ) ;
#219 = CC_DESIGN_PERSON_AND_ORGANIZATION_ASSIGNMENT ( #117, #79, ( #168 ) ) ;
#220 = ORIENTED_EDGE ( 'NONE', *, *, #193, .F. ) ;
#221 = AXIS2_PLACEMENT_3D ( 'NONE', #69, #173, #138 ) ;
#222 = DIRECTION ( 'NONE',  ( 4.275831445896958607E-31, 1.000000000000000000, 1.224646799147353207E-16 ) ) ;
#223 = EDGE_LOOP ( 'NONE', ( #220 ) ) ;
ENDSEC;
END-ISO-10303-21;
