ISO-10303-21;
HEADER;
FILE_DESCRIPTION (( 'STEP AP203' ),
    '1' );
FILE_NAME ('55402.step',
    '2021-10-08T05:15:29',
    ( '' ),
    ( '' ),
    'SwSTEP 2.0',
    'SolidWorks 2019',
    '' );
FILE_SCHEMA (( 'CONFIG_CONTROL_DESIGN' ));
ENDSEC;

DATA;
#1 = CLOSED_SHELL ( 'NONE', ( #192, #23, #205, #32, #141 ) ) ;
#2 = CARTESIAN_POINT ( 'NONE',  ( 1.573420228935348781E-15, -5.518815253693504965E-17, 0.4506454642706712588 ) ) ;
#3 = DIRECTION ( 'NONE',  ( -3.491481338843133355E-15, 1.224646799147353207E-16, -1.000000000000000000 ) ) ;
#4 = DIRECTION ( 'NONE',  ( 0.0000000000000000000, 1.000000000000000000, 0.0000000000000000000 ) ) ;
#5 = PLANE ( 'NONE',  #181 ) ;
#6 = DIRECTION ( 'NONE',  ( -4.275831445896958607E-31, -1.000000000000000000, -1.224646799147353207E-16 ) ) ;
#7 = ADVANCED_FACE ( 'NONE', ( #125 ), #214, .T. ) ;
#8 = APPROVAL_ROLE ( '' ) ;
#9 = APPROVAL_PERSON_ORGANIZATION ( #66, #93, #18 ) ;
#10 = PERSON_AND_ORGANIZATION_ROLE ( 'design_owner' ) ;
#11 = APPROVAL_DATE_TIME ( #97, #26 ) ;
#12 = VERTEX_POINT ( 'NONE', #45 ) ;
#13 = VERTEX_POINT ( 'NONE', #216 ) ;
#14 = CC_DESIGN_APPROVAL ( #93, ( #77 ) ) ;
#15 = CALENDAR_DATE ( 2021, 8, 10 ) ;
#16 = ORIENTED_EDGE ( 'NONE', *, *, #173, .T. ) ;
#17 = ORIENTED_EDGE ( 'NONE', *, *, #103, .F. ) ;
#18 = APPROVAL_ROLE ( '' ) ;
#19 = CYLINDRICAL_SURFACE ( 'NONE', #21, 0.7499999999999938938 ) ;
#20 = PRODUCT ( '55402', '55402', '', ( #58 ) ) ;
#21 = AXIS2_PLACEMENT_3D ( 'NONE', #71, #3, #142 ) ;
#22 = ORIENTED_EDGE ( 'NONE', *, *, #80, .F. ) ;
#23 = ADVANCED_FACE ( 'NONE', ( #169, #209 ), #129, .T. ) ;
#24 = CARTESIAN_POINT ( 'NONE',  ( 1.319779946082704535E-13, -4.629164900776995227E-15, 37.79999999999999716 ) ) ;
#25 = ORIENTED_EDGE ( 'NONE', *, *, #213, .T. ) ;
#26 = APPROVAL ( #149, 'UNSPECIFIED' ) ;
#27 = PERSON_AND_ORGANIZATION_ROLE ( 'creator' ) ;
#28 = COORDINATED_UNIVERSAL_TIME_OFFSET ( 1, 0, .AHEAD. ) ;
#29 = CC_DESIGN_APPROVAL ( #217, ( #176 ) ) ;
#30 = AXIS2_PLACEMENT_3D ( 'NONE', #2, #90, #53 ) ;
#31 = VERTEX_POINT ( 'NONE', #177 ) ;
#32 = ADVANCED_FACE ( 'NONE', ( #197, #43 ), #86, .T. ) ;
#33 = DIRECTION ( 'NONE',  ( 4.275831445896957731E-31, 1.000000000000000000, 1.224646799147353207E-16 ) ) ;
#34 = AXIS2_PLACEMENT_3D ( 'NONE', #89, #39, #75 ) ;
#35 = COORDINATED_UNIVERSAL_TIME_OFFSET ( 1, 0, .AHEAD. ) ;
#36 = LOCAL_TIME ( 7, 15, 29.00000000000000000, #28 ) ;
#37 = DATE_AND_TIME ( #191, #196 ) ;
#38 = DIRECTION ( 'NONE',  ( -3.491481338843133355E-15, 1.224646799147353207E-16, -1.000000000000000000 ) ) ;
#39 = DIRECTION ( 'NONE',  ( 3.491481338843133355E-15, -1.224646799147353207E-16, 1.000000000000000000 ) ) ;
#40 = ORGANIZATION ( 'UNSPECIFIED', 'UNSPECIFIED', '' ) ;
#41 = EDGE_LOOP ( 'NONE', ( #162 ) ) ;
#42 = EDGE_LOOP ( 'NONE', ( #17 ) ) ;
#43 = FACE_BOUND ( 'NONE', #158, .T. ) ;
#44 = APPROVAL_PERSON_ORGANIZATION ( #113, #26, #220 ) ;
#45 = CARTESIAN_POINT ( 'NONE',  ( 1.326762908760390423E-13, 0.7999999999999962697, 38.00000000000000000 ) ) ;
#46 = APPLICATION_PROTOCOL_DEFINITION ( 'international standard', 'config_control_design', 1994, #140 ) ;
#47 = PRODUCT_DEFINITION ( 'UNKNOWN', '', #176, #204 ) ;
#48 = LOCAL_TIME ( 7, 15, 29.00000000000000000, #131 ) ;
#49 = EDGE_LOOP ( 'NONE', ( #184 ) ) ;
#50 = APPROVAL_DATE_TIME ( #37, #93 ) ;
#51 = DIRECTION ( 'NONE',  ( -3.491481338843133355E-15, 1.224646799147353207E-16, -1.000000000000000000 ) ) ;
#52 = PERSON_AND_ORGANIZATION_ROLE ( 'design_supplier' ) ;
#53 = DIRECTION ( 'NONE',  ( -5.135813185032671564E-31, -1.000000000000000000, -1.445602896647351243E-16 ) ) ;
#54 = DATE_AND_TIME ( #15, #48 ) ;
#55 = DIRECTION ( 'NONE',  ( -3.491481338843133355E-15, 1.224646799147353207E-16, -1.000000000000000000 ) ) ;
#56 = CARTESIAN_POINT ( 'NONE',  ( 1.326762908760390423E-13, -4.653657836759941941E-15, 38.00000000000000000 ) ) ;
#57 = DIRECTION ( 'NONE',  ( 3.491481338843133355E-15, -1.224646799147353207E-16, 1.000000000000000000 ) ) ;
#58 = MECHANICAL_CONTEXT ( 'NONE', #112, 'mechanical' ) ;
#59 = PRODUCT_DEFINITION_SHAPE ( 'NONE', 'NONE',  #47 ) ;
#60 = APPROVAL_STATUS ( 'not_yet_approved' ) ;
#61 = CIRCLE ( 'NONE', #124, 1.000000000000000888 ) ;
#62 = CARTESIAN_POINT ( 'NONE',  ( 3.910459099504309358E-14, 0.7499999999999928946, 11.19999999999999929 ) ) ;
#63 = EDGE_CURVE ( 'NONE', #12, #12, #223, .T. ) ;
#64 = CIRCLE ( 'NONE', #110, 0.9999999999999978906 ) ;
#65 = EDGE_LOOP ( 'NONE', ( #25 ) ) ;
#66 = PERSON_AND_ORGANIZATION ( #127, #40 ) ;
#67 = SECURITY_CLASSIFICATION_LEVEL ( 'unclassified' ) ;
#68 = APPROVAL_PERSON_ORGANIZATION ( #170, #217, #8 ) ;
#69 = PLANE ( 'NONE',  #208 ) ;
#70 = COORDINATED_UNIVERSAL_TIME_OFFSET ( 1, 0, .AHEAD. ) ;
#71 = CARTESIAN_POINT ( 'NONE',  ( 0.0000000000000000000, 0.0000000000000000000, 0.0000000000000000000 ) ) ;
#72 = ORIENTED_EDGE ( 'NONE', *, *, #103, .T. ) ;
#73 = AXIS2_PLACEMENT_3D ( 'NONE', #108, #175, #92 ) ;
#74 = EDGE_LOOP ( 'NONE', ( #22 ) ) ;
#75 = DIRECTION ( 'NONE',  ( 0.0000000000000000000, -1.000000000000000000, 0.0000000000000000000 ) ) ;
#76 =( NAMED_UNIT ( * ) SI_UNIT ( $, .STERADIAN. ) SOLID_ANGLE_UNIT ( ) );
#77 = SECURITY_CLASSIFICATION ( '', '', #67 ) ;
#78 = PERSON_AND_ORGANIZATION ( #127, #40 ) ;
#79 = AXIS2_PLACEMENT_3D ( 'NONE', #87, #100, #6 ) ;
#80 = EDGE_CURVE ( 'NONE', #130, #130, #61, .T. ) ;
#81 = ORIENTED_EDGE ( 'NONE', *, *, #173, .F. ) ;
#82 = CC_DESIGN_PERSON_AND_ORGANIZATION_ASSIGNMENT ( #207, #178, ( #176 ) ) ;
#83 = EDGE_LOOP ( 'NONE', ( #72 ) ) ;
#84 = COORDINATED_UNIVERSAL_TIME_OFFSET ( 1, 0, .AHEAD. ) ;
#85 = DIRECTION ( 'NONE',  ( 0.0000000000000000000, 1.000000000000000000, 0.0000000000000000000 ) ) ;
#86 = CONICAL_SURFACE ( 'NONE', #133, 0.8000000000000009326, 0.7853981633974512766 ) ;
#87 = CARTESIAN_POINT ( 'NONE',  ( 3.910459099504309358E-14, 5.624099184981901712E-33, 11.19999999999999929 ) ) ;
#88 = FACE_OUTER_BOUND ( 'NONE', #83, .T. ) ;
#89 = CARTESIAN_POINT ( 'NONE',  ( 4.061644676318185836E-14, -1.424633176981282202E-15, 11.63301270189223047 ) ) ;
#90 = DIRECTION ( 'NONE',  ( 3.491481338843133355E-15, -1.224646799147353207E-16, 1.000000000000000000 ) ) ;
#91 = DIRECTION ( 'NONE',  ( 0.0000000000000000000, 1.000000000000000000, 0.0000000000000000000 ) ) ;
#92 = DIRECTION ( 'NONE',  ( 1.000000000000000000, 0.0000000000000000000, 0.0000000000000000000 ) ) ;
#93 = APPROVAL ( #161, 'UNSPECIFIED' ) ;
#94 = VERTEX_POINT ( 'NONE', #62 ) ;
#95 = UNCERTAINTY_MEASURE_WITH_UNIT (LENGTH_MEASURE( 1.000000000000000082E-05 ), #152, 'distance_accuracy_value', 'NONE');
#96 = PRODUCT_RELATED_PRODUCT_CATEGORY ( 'detail', '', ( #20 ) ) ;
#97 = DATE_AND_TIME ( #185, #148 ) ;
#98 = CALENDAR_DATE ( 2021, 8, 10 ) ;
#99 = DIRECTION ( 'NONE',  ( -3.491481338843133355E-15, 1.224646799147353207E-16, -1.000000000000000000 ) ) ;
#100 = DIRECTION ( 'NONE',  ( 3.491481338843133355E-15, -1.224646799147353207E-16, 1.000000000000000000 ) ) ;
#101 = CC_DESIGN_APPROVAL ( #26, ( #47 ) ) ;
#102 = EDGE_LOOP ( 'NONE', ( #81 ) ) ;
#103 = EDGE_CURVE ( 'NONE', #31, #31, #132, .T. ) ;
#104 = DIRECTION ( 'NONE',  ( 0.0000000000000000000, 1.000000000000000000, 0.0000000000000000000 ) ) ;
#105 = FACE_OUTER_BOUND ( 'NONE', #41, .T. ) ;
#106 = AXIS2_PLACEMENT_3D ( 'NONE', #139, #168, #120 ) ;
#107 = APPLICATION_PROTOCOL_DEFINITION ( 'international standard', 'config_control_design', 1994, #112 ) ;
#108 = CARTESIAN_POINT ( 'NONE',  ( 0.0000000000000000000, 0.0000000000000000000, 0.0000000000000000000 ) ) ;
#109 = CARTESIAN_POINT ( 'NONE',  ( 1.319779946082704535E-13, 0.9999999999999963363, 37.79999999999999716 ) ) ;
#110 = AXIS2_PLACEMENT_3D ( 'NONE', #219, #188, #91 ) ;
#111 = DIRECTION ( 'NONE',  ( -3.491481338843133355E-15, 1.224646799147353207E-16, -1.000000000000000000 ) ) ;
#112 = APPLICATION_CONTEXT ( 'configuration controlled 3d designs of mechanical parts and assemblies' ) ;
#113 = PERSON_AND_ORGANIZATION ( #127, #40 ) ;
#114 = ORIENTED_EDGE ( 'NONE', *, *, #80, .T. ) ;
#115 = PERSON_AND_ORGANIZATION_ROLE ( 'classification_officer' ) ;
#116 = EDGE_LOOP ( 'NONE', ( #206 ) ) ;
#117 = CC_DESIGN_DATE_AND_TIME_ASSIGNMENT ( #137, #193, ( #77 ) ) ;
#118 = PERSON_AND_ORGANIZATION ( #127, #40 ) ;
#119 = CIRCLE ( 'NONE', #172, 0.7499999999999942268 ) ;
#120 = DIRECTION ( 'NONE',  ( 0.0000000000000000000, 1.000000000000000000, 0.0000000000000000000 ) ) ;
#121 = FACE_OUTER_BOUND ( 'NONE', #144, .T. ) ;
#122 = CC_DESIGN_PERSON_AND_ORGANIZATION_ASSIGNMENT ( #78, #27, ( #47 ) ) ;
#123 = DIRECTION ( 'NONE',  ( 0.0000000000000000000, 1.000000000000000000, 0.0000000000000000000 ) ) ;
#124 = AXIS2_PLACEMENT_3D ( 'NONE', #24, #38, #104 ) ;
#125 = FACE_OUTER_BOUND ( 'NONE', #116, .T. ) ;
#126 = DIRECTION ( 'NONE',  ( -4.275831445896958607E-31, -1.000000000000000000, -1.224646799147353207E-16 ) ) ;
#127 = PERSON ( 'UNSPECIFIED', 'UNSPECIFIED', 'UNSPECIFIED', ('UNSPECIFIED'), ('UNSPECIFIED'), ('UNSPECIFIED') ) ;
#128 = CC_DESIGN_PERSON_AND_ORGANIZATION_ASSIGNMENT ( #118, #115, ( #77 ) ) ;
#129 = CONICAL_SURFACE ( 'NONE', #34, 0.9999999999999978906, 0.5235987755982943748 ) ;
#130 = VERTEX_POINT ( 'NONE', #109 ) ;
#131 = COORDINATED_UNIVERSAL_TIME_OFFSET ( 1, 0, .AHEAD. ) ;
#132 = CIRCLE ( 'NONE', #212, 0.7499999999999937828 ) ;
#133 = AXIS2_PLACEMENT_3D ( 'NONE', #198, #51, #85 ) ;
#134 = ORIENTED_EDGE ( 'NONE', *, *, #63, .T. ) ;
#135 = ADVANCED_FACE ( 'NONE', ( #88 ), #218, .T. ) ;
#136 = APPROVAL_DATE_TIME ( #54, #217 ) ;
#137 = DATE_AND_TIME ( #98, #155 ) ;
#138 =( GEOMETRIC_REPRESENTATION_CONTEXT ( 3 ) GLOBAL_UNCERTAINTY_ASSIGNED_CONTEXT ( ( #95 ) ) GLOBAL_UNIT_ASSIGNED_CONTEXT ( ( #152, #200, #76 ) ) REPRESENTATION_CONTEXT ( 'NONE', 'WORKASPACE' ) );
#139 = CARTESIAN_POINT ( 'NONE',  ( 3.910459099504309358E-14, -1.371604415045035513E-15, 11.19999999999999929 ) ) ;
#140 = APPLICATION_CONTEXT ( 'configuration controlled 3d designs of mechanical parts and assemblies' ) ;
#141 = ADVANCED_FACE ( 'NONE', ( #121 ), #69, .F. ) ;
#142 = DIRECTION ( 'NONE',  ( 4.275831445896958607E-31, 1.000000000000000000, 1.224646799147353207E-16 ) ) ;
#143 = AXIS2_PLACEMENT_3D ( 'NONE', #146, #111, #33 ) ;
#144 = EDGE_LOOP ( 'NONE', ( #194 ) ) ;
#145 = CARTESIAN_POINT ( 'NONE',  ( 3.910459099504309358E-14, 5.624099184981901712E-33, 11.19999999999999929 ) ) ;
#146 = CARTESIAN_POINT ( 'NONE',  ( 0.0000000000000000000, 0.0000000000000000000, 0.0000000000000000000 ) ) ;
#147 = CYLINDRICAL_SURFACE ( 'NONE', #143, 0.9999999999999993339 ) ;
#148 = LOCAL_TIME ( 7, 15, 29.00000000000000000, #35 ) ;
#149 = APPROVAL_STATUS ( 'not_yet_approved' ) ;
#150 = EDGE_CURVE ( 'NONE', #201, #201, #156, .T. ) ;
#151 = DATE_AND_TIME ( #171, #36 ) ;
#152 =( LENGTH_UNIT ( ) NAMED_UNIT ( * ) SI_UNIT ( .MILLI., .METRE. ) );
#153 = CC_DESIGN_PERSON_AND_ORGANIZATION_ASSIGNMENT ( #180, #52, ( #176 ) ) ;
#154 = EDGE_LOOP ( 'NONE', ( #114 ) ) ;
#155 = LOCAL_TIME ( 7, 15, 29.00000000000000000, #70 ) ;
#156 = CIRCLE ( 'NONE', #106, 0.7499999999999942268 ) ;
#157 = MANIFOLD_SOLID_BREP ( 'Corps-Déplacer/Copier1[2]', #167 ) ;
#158 = EDGE_LOOP ( 'NONE', ( #134 ) ) ;
#159 = SHAPE_DEFINITION_REPRESENTATION ( #59, #163 ) ;
#160 = DIRECTION ( 'NONE',  ( 5.135813185032671564E-31, 1.000000000000000000, 1.445602896647351243E-16 ) ) ;
#161 = APPROVAL_STATUS ( 'not_yet_approved' ) ;
#162 = ORIENTED_EDGE ( 'NONE', *, *, #213, .F. ) ;
#163 = ADVANCED_BREP_SHAPE_REPRESENTATION ( '55402', ( #165, #157, #73 ), #138 ) ;
#164 = FACE_OUTER_BOUND ( 'NONE', #222, .T. ) ;
#165 = MANIFOLD_SOLID_BREP ( 'Corps-Déplacer/Copier1[1]', #1 ) ;
#166 = ADVANCED_FACE ( 'NONE', ( #210, #211 ), #19, .T. ) ;
#167 = CLOSED_SHELL ( 'NONE', ( #135, #166, #7 ) ) ;
#168 = DIRECTION ( 'NONE',  ( -3.491481338843133355E-15, 1.224646799147353207E-16, -1.000000000000000000 ) ) ;
#169 = FACE_BOUND ( 'NONE', #102, .T. ) ;
#170 = PERSON_AND_ORGANIZATION ( #127, #40 ) ;
#171 = CALENDAR_DATE ( 2021, 8, 10 ) ;
#172 = AXIS2_PLACEMENT_3D ( 'NONE', #182, #55, #123 ) ;
#173 = EDGE_CURVE ( 'NONE', #94, #94, #119, .T. ) ;
#174 = FACE_OUTER_BOUND ( 'NONE', #154, .T. ) ;
#175 = DIRECTION ( 'NONE',  ( 0.0000000000000000000, 0.0000000000000000000, 1.000000000000000000 ) ) ;
#176 = PRODUCT_DEFINITION_FORMATION_WITH_SPECIFIED_SOURCE ( 'ANY', '', #20, .NOT_KNOWN. ) ;
#177 = CARTESIAN_POINT ( 'NONE',  ( 1.573420228935349175E-15, 0.7499999999999936717, 0.4506454642706713698 ) ) ;
#178 = PERSON_AND_ORGANIZATION_ROLE ( 'creator' ) ;
#179 = DIRECTION ( 'NONE',  ( -3.491481338843133355E-15, 1.224646799147353207E-16, -1.000000000000000000 ) ) ;
#180 = PERSON_AND_ORGANIZATION ( #127, #40 ) ;
#181 = AXIS2_PLACEMENT_3D ( 'NONE', #145, #57, #126 ) ;
#182 = CARTESIAN_POINT ( 'NONE',  ( 3.910459099504309358E-14, -1.371604415045035513E-15, 11.19999999999999929 ) ) ;
#183 = CARTESIAN_POINT ( 'NONE',  ( 1.573420228935348781E-15, -5.518815253693504965E-17, 0.4506454642706712588 ) ) ;
#184 = ORIENTED_EDGE ( 'NONE', *, *, #150, .T. ) ;
#185 = CALENDAR_DATE ( 2021, 8, 10 ) ;
#186 = CC_DESIGN_PERSON_AND_ORGANIZATION_ASSIGNMENT ( #203, #10, ( #20 ) ) ;
#187 = CARTESIAN_POINT ( 'NONE',  ( 3.910459099504309358E-14, 0.7499999999999928946, 11.19999999999999929 ) ) ;
#188 = DIRECTION ( 'NONE',  ( -3.491481338843133355E-15, 1.224646799147353207E-16, -1.000000000000000000 ) ) ;
#189 = CC_DESIGN_DATE_AND_TIME_ASSIGNMENT ( #151, #221, ( #47 ) ) ;
#190 = CC_DESIGN_SECURITY_CLASSIFICATION ( #77, ( #176 ) ) ;
#191 = CALENDAR_DATE ( 2021, 8, 10 ) ;
#192 = ADVANCED_FACE ( 'NONE', ( #164 ), #5, .F. ) ;
#193 = DATE_TIME_ROLE ( 'classification_date' ) ;
#194 = ORIENTED_EDGE ( 'NONE', *, *, #63, .F. ) ;
#195 = CARTESIAN_POINT ( 'NONE',  ( 1.326762908760390423E-13, 5.999039130647367482E-33, 38.00000000000000000 ) ) ;
#196 = LOCAL_TIME ( 7, 15, 29.00000000000000000, #84 ) ;
#197 = FACE_OUTER_BOUND ( 'NONE', #74, .T. ) ;
#198 = CARTESIAN_POINT ( 'NONE',  ( 1.326762908760390423E-13, -4.653657836759941941E-15, 38.00000000000000000 ) ) ;
#199 = DIRECTION ( 'NONE',  ( 4.275831445896958607E-31, 1.000000000000000000, 1.224646799147353207E-16 ) ) ;
#200 =( NAMED_UNIT ( * ) PLANE_ANGLE_UNIT ( ) SI_UNIT ( $, .RADIAN. ) );
#201 = VERTEX_POINT ( 'NONE', #187 ) ;
#202 = AXIS2_PLACEMENT_3D ( 'NONE', #56, #215, #4 ) ;
#203 = PERSON_AND_ORGANIZATION ( #127, #40 ) ;
#204 = DESIGN_CONTEXT ( 'detailed design', #140, 'design' ) ;
#205 = ADVANCED_FACE ( 'NONE', ( #105, #174 ), #147, .T. ) ;
#206 = ORIENTED_EDGE ( 'NONE', *, *, #150, .F. ) ;
#207 = PERSON_AND_ORGANIZATION ( #127, #40 ) ;
#208 = AXIS2_PLACEMENT_3D ( 'NONE', #195, #179, #199 ) ;
#209 = FACE_OUTER_BOUND ( 'NONE', #65, .T. ) ;
#210 = FACE_OUTER_BOUND ( 'NONE', #42, .T. ) ;
#211 = FACE_OUTER_BOUND ( 'NONE', #49, .T. ) ;
#212 = AXIS2_PLACEMENT_3D ( 'NONE', #183, #99, #160 ) ;
#213 = EDGE_CURVE ( 'NONE', #13, #13, #64, .T. ) ;
#214 = PLANE ( 'NONE',  #79 ) ;
#215 = DIRECTION ( 'NONE',  ( -3.491481338843133355E-15, 1.224646799147353207E-16, -1.000000000000000000 ) ) ;
#216 = CARTESIAN_POINT ( 'NONE',  ( 4.061644676318185836E-14, 0.9999999999999963363, 11.63301270189223047 ) ) ;
#217 = APPROVAL ( #60, 'UNSPECIFIED' ) ;
#218 = CONICAL_SURFACE ( 'NONE', #30, 0.7499999999999937828, 1.029744258676649871 ) ;
#219 = CARTESIAN_POINT ( 'NONE',  ( 4.061644676318185836E-14, -1.424633176981282202E-15, 11.63301270189223047 ) ) ;
#220 = APPROVAL_ROLE ( '' ) ;
#221 = DATE_TIME_ROLE ( 'creation_date' ) ;
#222 = EDGE_LOOP ( 'NONE', ( #16 ) ) ;
#223 = CIRCLE ( 'NONE', #202, 0.8000000000000009326 ) ;
ENDSEC;
END-ISO-10303-21;
