ISO-10303-21;
HEADER;
FILE_DESCRIPTION (( 'STEP AP203' ),
    '1' );
FILE_NAME ('55401.step',
    '2021-10-08T05:15:28',
    ( '' ),
    ( '' ),
    'SwSTEP 2.0',
    'SolidWorks 2019',
    '' );
FILE_SCHEMA (( 'CONFIG_CONTROL_DESIGN' ));
ENDSEC;

DATA;
#1 = APPROVAL_DATE_TIME ( #85, #80 ) ;
#2 = AXIS2_PLACEMENT_3D ( 'NONE', #197, #42, #45 ) ;
#3 = VERTEX_POINT ( 'NONE', #204 ) ;
#4 = PERSON_AND_ORGANIZATION ( #91, #182 ) ;
#5 = CC_DESIGN_DATE_AND_TIME_ASSIGNMENT ( #206, #154, ( #30 ) ) ;
#6 = DIRECTION ( 'NONE',  ( -5.170281729898663430E-31, -1.000000000000000000, -1.455304929510756505E-16 ) ) ;
#7 = APPROVAL_STATUS ( 'not_yet_approved' ) ;
#8 = CLOSED_SHELL ( 'NONE', ( #167, #122, #218 ) ) ;
#9 = DIRECTION ( 'NONE',  ( 0.0000000000000000000, 1.000000000000000000, 0.0000000000000000000 ) ) ;
#10 = ORIENTED_EDGE ( 'NONE', *, *, #96, .F. ) ;
#11 = MANIFOLD_SOLID_BREP ( 'Corps-Déplacer/Copier1[1]', #43 ) ;
#12 = DIRECTION ( 'NONE',  ( -3.491481338843133355E-15, 1.224646799147353207E-16, -1.000000000000000000 ) ) ;
#13 = CARTESIAN_POINT ( 'NONE',  ( 3.910459099504309358E-14, -1.371604415045035513E-15, 11.19999999999999929 ) ) ;
#14 = EDGE_CURVE ( 'NONE', #99, #99, #187, .T. ) ;
#15 = CIRCLE ( 'NONE', #110, 0.7499999999999998890 ) ;
#16 = ORIENTED_EDGE ( 'NONE', *, *, #222, .T. ) ;
#17 = LOCAL_TIME ( 7, 15, 28.00000000000000000, #139 ) ;
#18 = ADVANCED_FACE ( 'NONE', ( #29 ), #175, .F. ) ;
#19 = CALENDAR_DATE ( 2021, 8, 10 ) ;
#20 = SHAPE_DEFINITION_REPRESENTATION ( #208, #140 ) ;
#21 = CC_DESIGN_DATE_AND_TIME_ASSIGNMENT ( #57, #74, ( #196 ) ) ;
#22 = APPLICATION_PROTOCOL_DEFINITION ( 'international standard', 'config_control_design', 1994, #68 ) ;
#23 = PRODUCT ( '55401', '55401', '', ( #24 ) ) ;
#24 = MECHANICAL_CONTEXT ( 'NONE', #112, 'mechanical' ) ;
#25 = APPROVAL_PERSON_ORGANIZATION ( #89, #181, #102 ) ;
#26 = EDGE_LOOP ( 'NONE', ( #146 ) ) ;
#27 = DIRECTION ( 'NONE',  ( -3.491481338843133355E-15, 1.224646799147353207E-16, -1.000000000000000000 ) ) ;
#28 = EDGE_LOOP ( 'NONE', ( #16 ) ) ;
#29 = FACE_OUTER_BOUND ( 'NONE', #125, .T. ) ;
#30 = SECURITY_CLASSIFICATION ( '', '', #192 ) ;
#31 = CARTESIAN_POINT ( 'NONE',  ( 3.910459099504309358E-14, 5.586605190415357051E-33, 11.19999999999999929 ) ) ;
#32 = ORIENTED_EDGE ( 'NONE', *, *, #222, .F. ) ;
#33 = EDGE_CURVE ( 'NONE', #3, #3, #49, .T. ) ;
#34 =( GEOMETRIC_REPRESENTATION_CONTEXT ( 3 ) GLOBAL_UNCERTAINTY_ASSIGNED_CONTEXT ( ( #121 ) ) GLOBAL_UNIT_ASSIGNED_CONTEXT ( ( #188, #51, #172 ) ) REPRESENTATION_CONTEXT ( 'NONE', 'WORKASPACE' ) );
#35 = ADVANCED_FACE ( 'NONE', ( #120, #76 ), #194, .T. ) ;
#36 = PLANE ( 'NONE',  #64 ) ;
#37 = APPLICATION_PROTOCOL_DEFINITION ( 'international standard', 'config_control_design', 1994, #112 ) ;
#38 = AXIS2_PLACEMENT_3D ( 'NONE', #50, #210, #149 ) ;
#39 = APPROVAL_DATE_TIME ( #137, #181 ) ;
#40 = DIRECTION ( 'NONE',  ( 3.491481338843133355E-15, -1.224646799147353207E-16, 1.000000000000000000 ) ) ;
#41 = APPROVAL_ROLE ( '' ) ;
#42 = DIRECTION ( 'NONE',  ( -3.491481338843133355E-15, 1.224646799147353207E-16, -1.000000000000000000 ) ) ;
#43 = CLOSED_SHELL ( 'NONE', ( #111, #35, #164, #162, #18 ) ) ;
#44 = FACE_OUTER_BOUND ( 'NONE', #63, .T. ) ;
#45 = DIRECTION ( 'NONE',  ( 0.0000000000000000000, 1.000000000000000000, 0.0000000000000000000 ) ) ;
#46 = DIRECTION ( 'NONE',  ( -3.491481338843133355E-15, 1.224646799147353207E-16, -1.000000000000000000 ) ) ;
#47 = AXIS2_PLACEMENT_3D ( 'NONE', #123, #93, #160 ) ;
#48 = APPROVAL_STATUS ( 'not_yet_approved' ) ;
#49 = CIRCLE ( 'NONE', #2, 0.7449999999999944444 ) ;
#50 = CARTESIAN_POINT ( 'NONE',  ( 1.562930760742446695E-15, -5.482023152002216156E-17, 0.4476411611755334863 ) ) ;
#51 =( NAMED_UNIT ( * ) PLANE_ANGLE_UNIT ( ) SI_UNIT ( $, .RADIAN. ) );
#52 = PERSON_AND_ORGANIZATION ( #91, #182 ) ;
#53 = CARTESIAN_POINT ( 'NONE',  ( 3.910459099504309358E-14, 5.586605190415357051E-33, 11.19999999999999929 ) ) ;
#54 = LOCAL_TIME ( 7, 15, 28.00000000000000000, #211 ) ;
#55 = PERSON_AND_ORGANIZATION_ROLE ( 'creator' ) ;
#56 = DIRECTION ( 'NONE',  ( 4.275831445896959482E-31, 1.000000000000000000, 1.224646799147353207E-16 ) ) ;
#57 = DATE_AND_TIME ( #189, #54 ) ;
#58 = CARTESIAN_POINT ( 'NONE',  ( 3.913482811040588124E-14, -1.372664990283760952E-15, 11.20866025403784860 ) ) ;
#59 = AXIS2_PLACEMENT_3D ( 'NONE', #115, #185, #190 ) ;
#60 = ORIENTED_EDGE ( 'NONE', *, *, #72, .T. ) ;
#61 = DIRECTION ( 'NONE',  ( -3.491481338843133355E-15, 1.224646799147353207E-16, -1.000000000000000000 ) ) ;
#62 = DIRECTION ( 'NONE',  ( 0.0000000000000000000, 1.000000000000000000, 0.0000000000000000000 ) ) ;
#63 = EDGE_LOOP ( 'NONE', ( #65 ) ) ;
#64 = AXIS2_PLACEMENT_3D ( 'NONE', #53, #101, #103 ) ;
#65 = ORIENTED_EDGE ( 'NONE', *, *, #33, .T. ) ;
#66 = APPROVAL_PERSON_ORGANIZATION ( #184, #80, #113 ) ;
#67 = CC_DESIGN_PERSON_AND_ORGANIZATION_ASSIGNMENT ( #171, #186, ( #30 ) ) ;
#68 = APPLICATION_CONTEXT ( 'configuration controlled 3d designs of mechanical parts and assemblies' ) ;
#69 = CC_DESIGN_APPROVAL ( #183, ( #30 ) ) ;
#70 = CARTESIAN_POINT ( 'NONE',  ( 1.040461438975253740E-13, 0.7499999999999962252, 29.80000000000000071 ) ) ;
#71 = PERSON_AND_ORGANIZATION_ROLE ( 'creator' ) ;
#72 = EDGE_CURVE ( 'NONE', #207, #207, #15, .T. ) ;
#73 = CARTESIAN_POINT ( 'NONE',  ( 1.047444401652940007E-13, -3.673940397442059178E-15, 30.00000000000000000 ) ) ;
#74 = DATE_TIME_ROLE ( 'creation_date' ) ;
#75 = CARTESIAN_POINT ( 'NONE',  ( 1.040461438975253740E-13, -3.649447461459112464E-15, 29.80000000000000071 ) ) ;
#76 = FACE_OUTER_BOUND ( 'NONE', #221, .T. ) ;
#77 = FACE_OUTER_BOUND ( 'NONE', #143, .T. ) ;
#78 = EDGE_LOOP ( 'NONE', ( #81 ) ) ;
#79 = DIRECTION ( 'NONE',  ( 0.0000000000000000000, 1.000000000000000000, 0.0000000000000000000 ) ) ;
#80 = APPROVAL ( #48, 'UNSPECIFIED' ) ;
#81 = ORIENTED_EDGE ( 'NONE', *, *, #14, .F. ) ;
#82 = DIRECTION ( 'NONE',  ( 0.0000000000000000000, 1.000000000000000000, 0.0000000000000000000 ) ) ;
#83 = CIRCLE ( 'NONE', #124, 0.7449999999999944444 ) ;
#84 = DATE_AND_TIME ( #173, #17 ) ;
#85 = DATE_AND_TIME ( #19, #198 ) ;
#86 = COORDINATED_UNIVERSAL_TIME_OFFSET ( 1, 0, .AHEAD. ) ;
#87 = CARTESIAN_POINT ( 'NONE',  ( 3.910459099504309358E-14, 0.7449999999999931122, 11.19999999999999929 ) ) ;
#88 = CC_DESIGN_APPROVAL ( #80, ( #196 ) ) ;
#89 = PERSON_AND_ORGANIZATION ( #91, #182 ) ;
#90 = PLANE ( 'NONE',  #169 ) ;
#91 = PERSON ( 'UNSPECIFIED', 'UNSPECIFIED', 'UNSPECIFIED', ('UNSPECIFIED'), ('UNSPECIFIED'), ('UNSPECIFIED') ) ;
#92 = FACE_OUTER_BOUND ( 'NONE', #128, .T. ) ;
#93 = DIRECTION ( 'NONE',  ( -3.491481338843133355E-15, 1.224646799147353207E-16, -1.000000000000000000 ) ) ;
#94 = EDGE_LOOP ( 'NONE', ( #109 ) ) ;
#95 = ORIENTED_EDGE ( 'NONE', *, *, #14, .T. ) ;
#96 = EDGE_CURVE ( 'NONE', #133, #133, #83, .T. ) ;
#97 = AXIS2_PLACEMENT_3D ( 'NONE', #193, #61, #107 ) ;
#98 = CALENDAR_DATE ( 2021, 8, 10 ) ;
#99 = VERTEX_POINT ( 'NONE', #165 ) ;
#100 = AXIS2_PLACEMENT_3D ( 'NONE', #215, #46, #56 ) ;
#101 = DIRECTION ( 'NONE',  ( 3.491481338843133355E-15, -1.224646799147353207E-16, 1.000000000000000000 ) ) ;
#102 = APPROVAL_ROLE ( '' ) ;
#103 = DIRECTION ( 'NONE',  ( -4.275831445896958607E-31, -1.000000000000000000, -1.224646799147353207E-16 ) ) ;
#104 = PERSON_AND_ORGANIZATION_ROLE ( 'design_supplier' ) ;
#105 = CARTESIAN_POINT ( 'NONE',  ( 3.913482811040588124E-14, -1.372664990283760952E-15, 11.20866025403784860 ) ) ;
#106 = AXIS2_PLACEMENT_3D ( 'NONE', #105, #217, #176 ) ;
#107 = DIRECTION ( 'NONE',  ( 4.275831445896958607E-31, 1.000000000000000000, 1.224646799147353207E-16 ) ) ;
#108 = DIRECTION ( 'NONE',  ( 3.491481338843133355E-15, -1.224646799147353207E-16, 1.000000000000000000 ) ) ;
#109 = ORIENTED_EDGE ( 'NONE', *, *, #33, .F. ) ;
#110 = AXIS2_PLACEMENT_3D ( 'NONE', #75, #27, #178 ) ;
#111 = ADVANCED_FACE ( 'NONE', ( #44 ), #90, .F. ) ;
#112 = APPLICATION_CONTEXT ( 'configuration controlled 3d designs of mechanical parts and assemblies' ) ;
#113 = APPROVAL_ROLE ( '' ) ;
#114 = CC_DESIGN_PERSON_AND_ORGANIZATION_ASSIGNMENT ( #170, #203, ( #23 ) ) ;
#115 = CARTESIAN_POINT ( 'NONE',  ( 0.0000000000000000000, 0.0000000000000000000, 0.0000000000000000000 ) ) ;
#116 = CC_DESIGN_APPROVAL ( #181, ( #147 ) ) ;
#117 = CARTESIAN_POINT ( 'NONE',  ( 1.047444401652940007E-13, 0.5499999999999963807, 30.00000000000000000 ) ) ;
#118 = FACE_OUTER_BOUND ( 'NONE', #199, .T. ) ;
#119 = PERSON_AND_ORGANIZATION ( #91, #182 ) ;
#120 = FACE_BOUND ( 'NONE', #94, .T. ) ;
#121 = UNCERTAINTY_MEASURE_WITH_UNIT (LENGTH_MEASURE( 1.000000000000000082E-05 ), #188, 'distance_accuracy_value', 'NONE');
#122 = ADVANCED_FACE ( 'NONE', ( #195, #214 ), #177, .T. ) ;
#123 = CARTESIAN_POINT ( 'NONE',  ( 0.0000000000000000000, 0.0000000000000000000, 0.0000000000000000000 ) ) ;
#124 = AXIS2_PLACEMENT_3D ( 'NONE', #13, #159, #9 ) ;
#125 = EDGE_LOOP ( 'NONE', ( #32 ) ) ;
#126 = CARTESIAN_POINT ( 'NONE',  ( 1.047444401652940007E-13, -3.673940397442059178E-15, 30.00000000000000000 ) ) ;
#127 = AXIS2_PLACEMENT_3D ( 'NONE', #134, #40, #6 ) ;
#128 = EDGE_LOOP ( 'NONE', ( #202 ) ) ;
#129 = CIRCLE ( 'NONE', #155, 0.5500000000000000444 ) ;
#130 = CIRCLE ( 'NONE', #38, 0.7449999999999936673 ) ;
#131 = CONICAL_SURFACE ( 'NONE', #223, 0.5500000000000000444, 0.7853981633974510546 ) ;
#132 = DIRECTION ( 'NONE',  ( -3.491481338843133355E-15, 1.224646799147353207E-16, -1.000000000000000000 ) ) ;
#133 = VERTEX_POINT ( 'NONE', #87 ) ;
#134 = CARTESIAN_POINT ( 'NONE',  ( 1.562930760742446695E-15, -5.482023152002216156E-17, 0.4476411611755334863 ) ) ;
#135 = COORDINATED_UNIVERSAL_TIME_OFFSET ( 1, 0, .AHEAD. ) ;
#136 = CC_DESIGN_SECURITY_CLASSIFICATION ( #30, ( #147 ) ) ;
#137 = DATE_AND_TIME ( #209, #163 ) ;
#138 = DESIGN_CONTEXT ( 'detailed design', #68, 'design' ) ;
#139 = COORDINATED_UNIVERSAL_TIME_OFFSET ( 1, 0, .AHEAD. ) ;
#140 = ADVANCED_BREP_SHAPE_REPRESENTATION ( '55401', ( #11, #148, #59 ), #34 ) ;
#141 = PRODUCT_RELATED_PRODUCT_CATEGORY ( 'detail', '', ( #23 ) ) ;
#142 = DIRECTION ( 'NONE',  ( -4.275831445896958607E-31, -1.000000000000000000, -1.224646799147353207E-16 ) ) ;
#143 = EDGE_LOOP ( 'NONE', ( #60 ) ) ;
#144 = CYLINDRICAL_SURFACE ( 'NONE', #100, 0.7499999999999987788 ) ;
#145 = FACE_OUTER_BOUND ( 'NONE', #78, .T. ) ;
#146 = ORIENTED_EDGE ( 'NONE', *, *, #191, .F. ) ;
#147 = PRODUCT_DEFINITION_FORMATION_WITH_SPECIFIED_SOURCE ( 'ANY', '', #23, .NOT_KNOWN. ) ;
#148 = MANIFOLD_SOLID_BREP ( 'Corps-Déplacer/Copier1[2]', #8 ) ;
#149 = DIRECTION ( 'NONE',  ( 5.170281729898663430E-31, 1.000000000000000000, 1.455304929510756505E-16 ) ) ;
#150 = CC_DESIGN_PERSON_AND_ORGANIZATION_ASSIGNMENT ( #4, #71, ( #196 ) ) ;
#151 = COORDINATED_UNIVERSAL_TIME_OFFSET ( 1, 0, .AHEAD. ) ;
#152 = CARTESIAN_POINT ( 'NONE',  ( 1.562930760742447089E-15, 0.7449999999999935563, 0.4476411611755335973 ) ) ;
#153 = FACE_OUTER_BOUND ( 'NONE', #158, .T. ) ;
#154 = DATE_TIME_ROLE ( 'classification_date' ) ;
#155 = AXIS2_PLACEMENT_3D ( 'NONE', #73, #132, #82 ) ;
#156 = APPROVAL_DATE_TIME ( #84, #183 ) ;
#157 = DIRECTION ( 'NONE',  ( -3.491481338843133355E-15, 1.224646799147353207E-16, -1.000000000000000000 ) ) ;
#158 = EDGE_LOOP ( 'NONE', ( #180 ) ) ;
#159 = DIRECTION ( 'NONE',  ( -3.491481338843133355E-15, 1.224646799147353207E-16, -1.000000000000000000 ) ) ;
#160 = DIRECTION ( 'NONE',  ( 4.275831445896958607E-31, 1.000000000000000000, 1.224646799147353207E-16 ) ) ;
#161 = CC_DESIGN_PERSON_AND_ORGANIZATION_ASSIGNMENT ( #119, #104, ( #147 ) ) ;
#162 = ADVANCED_FACE ( 'NONE', ( #92, #212 ), #131, .T. ) ;
#163 = LOCAL_TIME ( 7, 15, 28.00000000000000000, #135 ) ;
#164 = ADVANCED_FACE ( 'NONE', ( #145, #77 ), #144, .T. ) ;
#165 = CARTESIAN_POINT ( 'NONE',  ( 3.913482811040588124E-14, 0.7499999999999963363, 11.20866025403784860 ) ) ;
#166 = VERTEX_POINT ( 'NONE', #117 ) ;
#167 = ADVANCED_FACE ( 'NONE', ( #153 ), #200, .T. ) ;
#168 = PERSON_AND_ORGANIZATION ( #91, #182 ) ;
#169 = AXIS2_PLACEMENT_3D ( 'NONE', #31, #108, #142 ) ;
#170 = PERSON_AND_ORGANIZATION ( #91, #182 ) ;
#171 = PERSON_AND_ORGANIZATION ( #91, #182 ) ;
#172 =( NAMED_UNIT ( * ) SI_UNIT ( $, .STERADIAN. ) SOLID_ANGLE_UNIT ( ) );
#173 = CALENDAR_DATE ( 2021, 8, 10 ) ;
#174 = APPROVAL_PERSON_ORGANIZATION ( #168, #183, #41 ) ;
#175 = PLANE ( 'NONE',  #97 ) ;
#176 = DIRECTION ( 'NONE',  ( 0.0000000000000000000, -1.000000000000000000, 0.0000000000000000000 ) ) ;
#177 = CYLINDRICAL_SURFACE ( 'NONE', #47, 0.7449999999999941114 ) ;
#178 = DIRECTION ( 'NONE',  ( 0.0000000000000000000, 1.000000000000000000, 0.0000000000000000000 ) ) ;
#179 = LOCAL_TIME ( 7, 15, 28.00000000000000000, #86 ) ;
#180 = ORIENTED_EDGE ( 'NONE', *, *, #191, .T. ) ;
#181 = APPROVAL ( #7, 'UNSPECIFIED' ) ;
#182 = ORGANIZATION ( 'UNSPECIFIED', 'UNSPECIFIED', '' ) ;
#183 = APPROVAL ( #213, 'UNSPECIFIED' ) ;
#184 = PERSON_AND_ORGANIZATION ( #91, #182 ) ;
#185 = DIRECTION ( 'NONE',  ( 0.0000000000000000000, 0.0000000000000000000, 1.000000000000000000 ) ) ;
#186 = PERSON_AND_ORGANIZATION_ROLE ( 'classification_officer' ) ;
#187 = CIRCLE ( 'NONE', #220, 0.7499999999999977796 ) ;
#188 =( LENGTH_UNIT ( ) NAMED_UNIT ( * ) SI_UNIT ( .MILLI., .METRE. ) );
#189 = CALENDAR_DATE ( 2021, 8, 10 ) ;
#190 = DIRECTION ( 'NONE',  ( 1.000000000000000000, 0.0000000000000000000, 0.0000000000000000000 ) ) ;
#191 = EDGE_CURVE ( 'NONE', #205, #205, #130, .T. ) ;
#192 = SECURITY_CLASSIFICATION_LEVEL ( 'unclassified' ) ;
#193 = CARTESIAN_POINT ( 'NONE',  ( 1.047444401652940007E-13, 4.124339402320052999E-33, 30.00000000000000000 ) ) ;
#194 = CONICAL_SURFACE ( 'NONE', #106, 0.7499999999999977796, 0.5235987755983679826 ) ;
#195 = FACE_OUTER_BOUND ( 'NONE', #26, .T. ) ;
#196 = PRODUCT_DEFINITION ( 'UNKNOWN', '', #147, #138 ) ;
#197 = CARTESIAN_POINT ( 'NONE',  ( 3.910459099504309358E-14, -1.371604415045035513E-15, 11.19999999999999929 ) ) ;
#198 = LOCAL_TIME ( 7, 15, 28.00000000000000000, #151 ) ;
#199 = EDGE_LOOP ( 'NONE', ( #10 ) ) ;
#200 = CONICAL_SURFACE ( 'NONE', #127, 0.7449999999999936673, 1.029744258676649649 ) ;
#201 = CC_DESIGN_PERSON_AND_ORGANIZATION_ASSIGNMENT ( #52, #55, ( #147 ) ) ;
#202 = ORIENTED_EDGE ( 'NONE', *, *, #72, .F. ) ;
#203 = PERSON_AND_ORGANIZATION_ROLE ( 'design_owner' ) ;
#204 = CARTESIAN_POINT ( 'NONE',  ( 3.910459099504309358E-14, 0.7449999999999931122, 11.19999999999999929 ) ) ;
#205 = VERTEX_POINT ( 'NONE', #152 ) ;
#206 = DATE_AND_TIME ( #98, #179 ) ;
#207 = VERTEX_POINT ( 'NONE', #70 ) ;
#208 = PRODUCT_DEFINITION_SHAPE ( 'NONE', 'NONE',  #196 ) ;
#209 = CALENDAR_DATE ( 2021, 8, 10 ) ;
#210 = DIRECTION ( 'NONE',  ( -3.491481338843133355E-15, 1.224646799147353207E-16, -1.000000000000000000 ) ) ;
#211 = COORDINATED_UNIVERSAL_TIME_OFFSET ( 1, 0, .AHEAD. ) ;
#212 = FACE_BOUND ( 'NONE', #28, .T. ) ;
#213 = APPROVAL_STATUS ( 'not_yet_approved' ) ;
#214 = FACE_OUTER_BOUND ( 'NONE', #216, .T. ) ;
#215 = CARTESIAN_POINT ( 'NONE',  ( 0.0000000000000000000, 0.0000000000000000000, 0.0000000000000000000 ) ) ;
#216 = EDGE_LOOP ( 'NONE', ( #219 ) ) ;
#217 = DIRECTION ( 'NONE',  ( 3.491481338843133355E-15, -1.224646799147353207E-16, 1.000000000000000000 ) ) ;
#218 = ADVANCED_FACE ( 'NONE', ( #118 ), #36, .T. ) ;
#219 = ORIENTED_EDGE ( 'NONE', *, *, #96, .T. ) ;
#220 = AXIS2_PLACEMENT_3D ( 'NONE', #58, #157, #62 ) ;
#221 = EDGE_LOOP ( 'NONE', ( #95 ) ) ;
#222 = EDGE_CURVE ( 'NONE', #166, #166, #129, .T. ) ;
#223 = AXIS2_PLACEMENT_3D ( 'NONE', #126, #12, #79 ) ;
ENDSEC;
END-ISO-10303-21;
