ISO-10303-21;
HEADER;
FILE_DESCRIPTION (( 'STEP AP203' ),
    '1' );
FILE_NAME ('55400.step',
    '2021-10-08T05:15:28',
    ( '' ),
    ( '' ),
    'SwSTEP 2.0',
    'SolidWorks 2019',
    '' );
FILE_SCHEMA (( 'CONFIG_CONTROL_DESIGN' ));
ENDSEC;

DATA;
#1 = EDGE_CURVE ( 'NONE', #61, #61, #36, .T. ) ;
#2 = VERTEX_POINT ( 'NONE', #184 ) ;
#3 = CARTESIAN_POINT ( 'NONE',  ( 1.047444401652940007E-13, 4.124339402320052999E-33, 30.00000000000000000 ) ) ;
#4 = APPROVAL_ROLE ( '' ) ;
#5 = CC_DESIGN_PERSON_AND_ORGANIZATION_ASSIGNMENT ( #99, #168, ( #18 ) ) ;
#6 = APPROVAL_STATUS ( 'not_yet_approved' ) ;
#7 = LOCAL_TIME ( 7, 15, 28.00000000000000000, #9 ) ;
#8 = PERSON_AND_ORGANIZATION_ROLE ( 'creator' ) ;
#9 = COORDINATED_UNIVERSAL_TIME_OFFSET ( 1, 0, .AHEAD. ) ;
#10 = DIRECTION ( 'NONE',  ( 3.491481338843133355E-15, -1.224646799147353207E-16, 1.000000000000000000 ) ) ;
#11 = CARTESIAN_POINT ( 'NONE',  ( 1.552441292549544017E-15, -5.445231050310924266E-17, 0.4446368580803956028 ) ) ;
#12 = CARTESIAN_POINT ( 'NONE',  ( 1.047444401652940007E-13, -3.673940397442059178E-15, 30.00000000000000000 ) ) ;
#13 = AXIS2_PLACEMENT_3D ( 'NONE', #130, #161, #38 ) ;
#14 = ORIENTED_EDGE ( 'NONE', *, *, #90, .T. ) ;
#15 = ADVANCED_FACE ( 'NONE', ( #215 ), #87, .T. ) ;
#16 = FACE_OUTER_BOUND ( 'NONE', #173, .T. ) ;
#17 = DIRECTION ( 'NONE',  ( 0.0000000000000000000, 1.000000000000000000, 0.0000000000000000000 ) ) ;
#18 = PRODUCT ( '55400', '55400', '', ( #37 ) ) ;
#19 = AXIS2_PLACEMENT_3D ( 'NONE', #11, #83, #69 ) ;
#20 = CARTESIAN_POINT ( 'NONE',  ( 1.552441292549544411E-15, 0.7399999999999935518, 0.4446368580803957138 ) ) ;
#21 = APPROVAL ( #116, 'UNSPECIFIED' ) ;
#22 = DIRECTION ( 'NONE',  ( -3.491481338843133355E-15, 1.224646799147353207E-16, -1.000000000000000000 ) ) ;
#23 =( LENGTH_UNIT ( ) NAMED_UNIT ( * ) SI_UNIT ( .MILLI., .METRE. ) );
#24 = COORDINATED_UNIVERSAL_TIME_OFFSET ( 1, 0, .AHEAD. ) ;
#25 = AXIS2_PLACEMENT_3D ( 'NONE', #39, #75, #74 ) ;
#26 = CALENDAR_DATE ( 2021, 8, 10 ) ;
#27 = PERSON_AND_ORGANIZATION ( #183, #221 ) ;
#28 = PERSON_AND_ORGANIZATION ( #183, #221 ) ;
#29 = AXIS2_PLACEMENT_3D ( 'NONE', #81, #125, #72 ) ;
#30 = ORIENTED_EDGE ( 'NONE', *, *, #110, .F. ) ;
#31 = DIRECTION ( 'NONE',  ( 0.0000000000000000000, 1.000000000000000000, 0.0000000000000000000 ) ) ;
#32 = LOCAL_TIME ( 7, 15, 28.00000000000000000, #24 ) ;
#33 = ORIENTED_EDGE ( 'NONE', *, *, #150, .F. ) ;
#34 = DIRECTION ( 'NONE',  ( 0.0000000000000000000, -1.000000000000000000, 0.0000000000000000000 ) ) ;
#35 = ORIENTED_EDGE ( 'NONE', *, *, #1, .T. ) ;
#36 = CIRCLE ( 'NONE', #60, 0.7499999999999998890 ) ;
#37 = MECHANICAL_CONTEXT ( 'NONE', #211, 'mechanical' ) ;
#38 = DIRECTION ( 'NONE',  ( -4.275831445896958607E-31, -1.000000000000000000, -1.224646799147353207E-16 ) ) ;
#39 = CARTESIAN_POINT ( 'NONE',  ( 3.910459099504309358E-14, -1.371604415045035513E-15, 11.19999999999999929 ) ) ;
#40 = ADVANCED_FACE ( 'NONE', ( #124, #70 ), #122, .T. ) ;
#41 = PRODUCT_DEFINITION_SHAPE ( 'NONE', 'NONE',  #178 ) ;
#42 = CC_DESIGN_APPROVAL ( #45, ( #51 ) ) ;
#43 = PERSON_AND_ORGANIZATION ( #183, #221 ) ;
#44 = CALENDAR_DATE ( 2021, 8, 10 ) ;
#45 = APPROVAL ( #62, 'UNSPECIFIED' ) ;
#46 = DATE_AND_TIME ( #80, #210 ) ;
#47 = CIRCLE ( 'NONE', #193, 0.7399999999999946620 ) ;
#48 = ORIENTED_EDGE ( 'NONE', *, *, #1, .F. ) ;
#49 = ADVANCED_FACE ( 'NONE', ( #202, #121 ), #127, .T. ) ;
#50 = DIRECTION ( 'NONE',  ( -3.491481338843133355E-15, 1.224646799147353207E-16, -1.000000000000000000 ) ) ;
#51 = SECURITY_CLASSIFICATION ( '', '', #135 ) ;
#52 = ORIENTED_EDGE ( 'NONE', *, *, #110, .T. ) ;
#53 = EDGE_LOOP ( 'NONE', ( #84 ) ) ;
#54 = CC_DESIGN_PERSON_AND_ORGANIZATION_ASSIGNMENT ( #27, #77, ( #152 ) ) ;
#55 = DIRECTION ( 'NONE',  ( 0.0000000000000000000, 0.0000000000000000000, 1.000000000000000000 ) ) ;
#56 = CIRCLE ( 'NONE', #19, 0.7399999999999936628 ) ;
#57 = CYLINDRICAL_SURFACE ( 'NONE', #174, 0.7399999999999941069 ) ;
#58 = APPLICATION_CONTEXT ( 'configuration controlled 3d designs of mechanical parts and assemblies' ) ;
#59 = APPLICATION_PROTOCOL_DEFINITION ( 'international standard', 'config_control_design', 1994, #211 ) ;
#60 = AXIS2_PLACEMENT_3D ( 'NONE', #144, #50, #107 ) ;
#61 = VERTEX_POINT ( 'NONE', #109 ) ;
#62 = APPROVAL_STATUS ( 'not_yet_approved' ) ;
#63 = LOCAL_TIME ( 7, 15, 28.00000000000000000, #209 ) ;
#64 = DATE_TIME_ROLE ( 'creation_date' ) ;
#65 = ADVANCED_FACE ( 'NONE', ( #67, #140 ), #66, .T. ) ;
#66 = CONICAL_SURFACE ( 'NONE', #131, 0.5500000000000000444, 0.7853981633974510546 ) ;
#67 = FACE_OUTER_BOUND ( 'NONE', #71, .T. ) ;
#68 = EDGE_CURVE ( 'NONE', #147, #147, #47, .T. ) ;
#69 = DIRECTION ( 'NONE',  ( 5.205216065911492492E-31, 1.000000000000000000, 1.465138070926369796E-16 ) ) ;
#70 = FACE_OUTER_BOUND ( 'NONE', #160, .T. ) ;
#71 = EDGE_LOOP ( 'NONE', ( #48 ) ) ;
#72 = DIRECTION ( 'NONE',  ( 4.275831445896959482E-31, 1.000000000000000000, 1.224646799147353207E-16 ) ) ;
#73 = FACE_OUTER_BOUND ( 'NONE', #188, .T. ) ;
#74 = DIRECTION ( 'NONE',  ( 0.0000000000000000000, 1.000000000000000000, 0.0000000000000000000 ) ) ;
#75 = DIRECTION ( 'NONE',  ( -3.491481338843133355E-15, 1.224646799147353207E-16, -1.000000000000000000 ) ) ;
#76 = VERTEX_POINT ( 'NONE', #153 ) ;
#77 = PERSON_AND_ORGANIZATION_ROLE ( 'design_supplier' ) ;
#78 = DATE_AND_TIME ( #155, #7 ) ;
#79 = DATE_TIME_ROLE ( 'classification_date' ) ;
#80 = CALENDAR_DATE ( 2021, 8, 10 ) ;
#81 = CARTESIAN_POINT ( 'NONE',  ( 0.0000000000000000000, 0.0000000000000000000, 0.0000000000000000000 ) ) ;
#82 = AXIS2_PLACEMENT_3D ( 'NONE', #149, #89, #151 ) ;
#83 = DIRECTION ( 'NONE',  ( -3.491481338843133355E-15, 1.224646799147353207E-16, -1.000000000000000000 ) ) ;
#84 = ORIENTED_EDGE ( 'NONE', *, *, #114, .T. ) ;
#85 = CC_DESIGN_PERSON_AND_ORGANIZATION_ASSIGNMENT ( #97, #187, ( #178 ) ) ;
#86 = AXIS2_PLACEMENT_3D ( 'NONE', #196, #220, #111 ) ;
#87 = PLANE ( 'NONE',  #96 ) ;
#88 = DIRECTION ( 'NONE',  ( 4.275831445896958607E-31, 1.000000000000000000, 1.224646799147353207E-16 ) ) ;
#89 = DIRECTION ( 'NONE',  ( -3.491481338843133355E-15, 1.224646799147353207E-16, -1.000000000000000000 ) ) ;
#90 = EDGE_CURVE ( 'NONE', #164, #164, #56, .T. ) ;
#91 = AXIS2_PLACEMENT_3D ( 'NONE', #3, #180, #88 ) ;
#92 = CARTESIAN_POINT ( 'NONE',  ( 0.0000000000000000000, 0.0000000000000000000, 0.0000000000000000000 ) ) ;
#93 = FACE_OUTER_BOUND ( 'NONE', #200, .T. ) ;
#94 = CC_DESIGN_DATE_AND_TIME_ASSIGNMENT ( #46, #64, ( #178 ) ) ;
#95 = FACE_OUTER_BOUND ( 'NONE', #142, .T. ) ;
#96 = AXIS2_PLACEMENT_3D ( 'NONE', #216, #10, #219 ) ;
#97 = PERSON_AND_ORGANIZATION ( #183, #221 ) ;
#98 = APPROVAL_ROLE ( '' ) ;
#99 = PERSON_AND_ORGANIZATION ( #183, #221 ) ;
#100 = CALENDAR_DATE ( 2021, 8, 10 ) ;
#101 = AXIS2_PLACEMENT_3D ( 'NONE', #195, #22, #17 ) ;
#102 = DATE_AND_TIME ( #26, #63 ) ;
#103 = CARTESIAN_POINT ( 'NONE',  ( 3.910459099504309358E-14, -1.371604415045035513E-15, 11.19999999999999929 ) ) ;
#104 = AXIS2_PLACEMENT_3D ( 'NONE', #115, #55, #126 ) ;
#105 = EDGE_LOOP ( 'NONE', ( #203 ) ) ;
#106 = ADVANCED_FACE ( 'NONE', ( #192 ), #223, .T. ) ;
#107 = DIRECTION ( 'NONE',  ( 0.0000000000000000000, 1.000000000000000000, 0.0000000000000000000 ) ) ;
#108 = AXIS2_PLACEMENT_3D ( 'NONE', #176, #156, #34 ) ;
#109 = CARTESIAN_POINT ( 'NONE',  ( 1.040461438975253740E-13, 0.7499999999999962252, 29.80000000000000071 ) ) ;
#110 = EDGE_CURVE ( 'NONE', #2, #2, #213, .T. ) ;
#111 = DIRECTION ( 'NONE',  ( -5.205216065911492492E-31, -1.000000000000000000, -1.465138070926369796E-16 ) ) ;
#112 = DIRECTION ( 'NONE',  ( 4.275831445896958607E-31, 1.000000000000000000, 1.224646799147353207E-16 ) ) ;
#113 = APPROVAL_PERSON_ORGANIZATION ( #197, #45, #98 ) ;
#114 = EDGE_CURVE ( 'NONE', #76, #76, #208, .T. ) ;
#115 = CARTESIAN_POINT ( 'NONE',  ( 0.0000000000000000000, 0.0000000000000000000, 0.0000000000000000000 ) ) ;
#116 = APPROVAL_STATUS ( 'not_yet_approved' ) ;
#117 = DATE_AND_TIME ( #100, #32 ) ;
#118 = APPROVAL_DATE_TIME ( #78, #45 ) ;
#119 = COORDINATED_UNIVERSAL_TIME_OFFSET ( 1, 0, .AHEAD. ) ;
#120 = CIRCLE ( 'NONE', #82, 0.5500000000000000444 ) ;
#121 = FACE_OUTER_BOUND ( 'NONE', #53, .T. ) ;
#122 = CYLINDRICAL_SURFACE ( 'NONE', #29, 0.7499999999999987788 ) ;
#123 = PRODUCT_RELATED_PRODUCT_CATEGORY ( 'detail', '', ( #18 ) ) ;
#124 = FACE_OUTER_BOUND ( 'NONE', #105, .T. ) ;
#125 = DIRECTION ( 'NONE',  ( -3.491481338843133355E-15, 1.224646799147353207E-16, -1.000000000000000000 ) ) ;
#126 = DIRECTION ( 'NONE',  ( 1.000000000000000000, 0.0000000000000000000, 0.0000000000000000000 ) ) ;
#127 = CONICAL_SURFACE ( 'NONE', #108, 0.7499999999999977796, 0.5235987755983044778 ) ;
#128 = DIRECTION ( 'NONE',  ( -3.491481338843133355E-15, 1.224646799147353207E-16, -1.000000000000000000 ) ) ;
#129 = ADVANCED_BREP_SHAPE_REPRESENTATION ( '55400', ( #169, #165, #104 ), #148 ) ;
#130 = CARTESIAN_POINT ( 'NONE',  ( 3.910459099504309358E-14, 5.549111195848812390E-33, 11.19999999999999929 ) ) ;
#131 = AXIS2_PLACEMENT_3D ( 'NONE', #12, #189, #31 ) ;
#132 = APPROVAL_DATE_TIME ( #117, #21 ) ;
#133 = APPROVAL_ROLE ( '' ) ;
#134 = ADVANCED_FACE ( 'NONE', ( #93, #95 ), #57, .T. ) ;
#135 = SECURITY_CLASSIFICATION_LEVEL ( 'unclassified' ) ;
#136 = DATE_AND_TIME ( #44, #201 ) ;
#137 = PERSON_AND_ORGANIZATION ( #183, #221 ) ;
#138 = ADVANCED_FACE ( 'NONE', ( #16 ), #181, .F. ) ;
#139 = CLOSED_SHELL ( 'NONE', ( #106, #134, #15 ) ) ;
#140 = FACE_BOUND ( 'NONE', #141, .T. ) ;
#141 = EDGE_LOOP ( 'NONE', ( #179 ) ) ;
#142 = EDGE_LOOP ( 'NONE', ( #52 ) ) ;
#143 = APPROVAL_PERSON_ORGANIZATION ( #137, #21, #133 ) ;
#144 = CARTESIAN_POINT ( 'NONE',  ( 1.040461438975253740E-13, -3.649447461459112464E-15, 29.80000000000000071 ) ) ;
#145 = DESIGN_CONTEXT ( 'detailed design', #58, 'design' ) ;
#146 = EDGE_LOOP ( 'NONE', ( #30 ) ) ;
#147 = VERTEX_POINT ( 'NONE', #166 ) ;
#148 =( GEOMETRIC_REPRESENTATION_CONTEXT ( 3 ) GLOBAL_UNCERTAINTY_ASSIGNED_CONTEXT ( ( #204 ) ) GLOBAL_UNIT_ASSIGNED_CONTEXT ( ( #23, #207, #163 ) ) REPRESENTATION_CONTEXT ( 'NONE', 'WORKASPACE' ) );
#149 = CARTESIAN_POINT ( 'NONE',  ( 1.047444401652940007E-13, -3.673940397442059178E-15, 30.00000000000000000 ) ) ;
#150 = EDGE_CURVE ( 'NONE', #182, #182, #120, .T. ) ;
#151 = DIRECTION ( 'NONE',  ( 0.0000000000000000000, 1.000000000000000000, 0.0000000000000000000 ) ) ;
#152 = PRODUCT_DEFINITION_FORMATION_WITH_SPECIFIED_SOURCE ( 'ANY', '', #18, .NOT_KNOWN. ) ;
#153 = CARTESIAN_POINT ( 'NONE',  ( 3.916506522576866260E-14, 0.7499999999999963363, 11.21732050807569436 ) ) ;
#154 = CC_DESIGN_APPROVAL ( #206, ( #152 ) ) ;
#155 = CALENDAR_DATE ( 2021, 8, 10 ) ;
#156 = DIRECTION ( 'NONE',  ( 3.491481338843133355E-15, -1.224646799147353207E-16, 1.000000000000000000 ) ) ;
#157 = CC_DESIGN_DATE_AND_TIME_ASSIGNMENT ( #136, #79, ( #51 ) ) ;
#158 = EDGE_LOOP ( 'NONE', ( #14 ) ) ;
#159 = ORIENTED_EDGE ( 'NONE', *, *, #68, .T. ) ;
#160 = EDGE_LOOP ( 'NONE', ( #35 ) ) ;
#161 = DIRECTION ( 'NONE',  ( 3.491481338843133355E-15, -1.224646799147353207E-16, 1.000000000000000000 ) ) ;
#162 = APPROVAL_PERSON_ORGANIZATION ( #43, #206, #4 ) ;
#163 =( NAMED_UNIT ( * ) SI_UNIT ( $, .STERADIAN. ) SOLID_ANGLE_UNIT ( ) );
#164 = VERTEX_POINT ( 'NONE', #20 ) ;
#165 = MANIFOLD_SOLID_BREP ( 'Corps-Déplacer/Copier1[2]', #139 ) ;
#166 = CARTESIAN_POINT ( 'NONE',  ( 3.910459099504309358E-14, 0.7399999999999932188, 11.19999999999999929 ) ) ;
#167 = CLOSED_SHELL ( 'NONE', ( #185, #49, #40, #65, #138 ) ) ;
#168 = PERSON_AND_ORGANIZATION_ROLE ( 'design_owner' ) ;
#169 = MANIFOLD_SOLID_BREP ( 'Corps-Déplacer/Copier1[1]', #167 ) ;
#170 = COORDINATED_UNIVERSAL_TIME_OFFSET ( 1, 0, .AHEAD. ) ;
#171 = CC_DESIGN_SECURITY_CLASSIFICATION ( #51, ( #152 ) ) ;
#172 = PERSON_AND_ORGANIZATION ( #183, #221 ) ;
#173 = EDGE_LOOP ( 'NONE', ( #33 ) ) ;
#174 = AXIS2_PLACEMENT_3D ( 'NONE', #92, #128, #112 ) ;
#175 = DIRECTION ( 'NONE',  ( 0.0000000000000000000, 1.000000000000000000, 0.0000000000000000000 ) ) ;
#176 = CARTESIAN_POINT ( 'NONE',  ( 3.916506522576866260E-14, -1.373725565522485996E-15, 11.21732050807569436 ) ) ;
#177 = DIRECTION ( 'NONE',  ( -3.491481338843133355E-15, 1.224646799147353207E-16, -1.000000000000000000 ) ) ;
#178 = PRODUCT_DEFINITION ( 'UNKNOWN', '', #152, #145 ) ;
#179 = ORIENTED_EDGE ( 'NONE', *, *, #150, .T. ) ;
#180 = DIRECTION ( 'NONE',  ( -3.491481338843133355E-15, 1.224646799147353207E-16, -1.000000000000000000 ) ) ;
#181 = PLANE ( 'NONE',  #91 ) ;
#182 = VERTEX_POINT ( 'NONE', #205 ) ;
#183 = PERSON ( 'UNSPECIFIED', 'UNSPECIFIED', 'UNSPECIFIED', ('UNSPECIFIED'), ('UNSPECIFIED'), ('UNSPECIFIED') ) ;
#184 = CARTESIAN_POINT ( 'NONE',  ( 3.910459099504309358E-14, 0.7399999999999932188, 11.19999999999999929 ) ) ;
#185 = ADVANCED_FACE ( 'NONE', ( #73 ), #222, .F. ) ;
#186 = PERSON_AND_ORGANIZATION_ROLE ( 'classification_officer' ) ;
#187 = PERSON_AND_ORGANIZATION_ROLE ( 'creator' ) ;
#188 = EDGE_LOOP ( 'NONE', ( #159 ) ) ;
#189 = DIRECTION ( 'NONE',  ( -3.491481338843133355E-15, 1.224646799147353207E-16, -1.000000000000000000 ) ) ;
#190 = EDGE_LOOP ( 'NONE', ( #214 ) ) ;
#191 = CC_DESIGN_PERSON_AND_ORGANIZATION_ASSIGNMENT ( #28, #186, ( #51 ) ) ;
#192 = FACE_OUTER_BOUND ( 'NONE', #158, .T. ) ;
#193 = AXIS2_PLACEMENT_3D ( 'NONE', #103, #177, #175 ) ;
#194 = CC_DESIGN_PERSON_AND_ORGANIZATION_ASSIGNMENT ( #172, #8, ( #152 ) ) ;
#195 = CARTESIAN_POINT ( 'NONE',  ( 3.916506522576866260E-14, -1.373725565522485996E-15, 11.21732050807569436 ) ) ;
#196 = CARTESIAN_POINT ( 'NONE',  ( 1.552441292549544017E-15, -5.445231050310924266E-17, 0.4446368580803956028 ) ) ;
#197 = PERSON_AND_ORGANIZATION ( #183, #221 ) ;
#198 = SHAPE_DEFINITION_REPRESENTATION ( #41, #129 ) ;
#199 = APPLICATION_PROTOCOL_DEFINITION ( 'international standard', 'config_control_design', 1994, #58 ) ;
#200 = EDGE_LOOP ( 'NONE', ( #218 ) ) ;
#201 = LOCAL_TIME ( 7, 15, 28.00000000000000000, #119 ) ;
#202 = FACE_BOUND ( 'NONE', #190, .T. ) ;
#203 = ORIENTED_EDGE ( 'NONE', *, *, #114, .F. ) ;
#204 = UNCERTAINTY_MEASURE_WITH_UNIT (LENGTH_MEASURE( 1.000000000000000082E-05 ), #23, 'distance_accuracy_value', 'NONE');
#205 = CARTESIAN_POINT ( 'NONE',  ( 1.047444401652940007E-13, 0.5499999999999963807, 30.00000000000000000 ) ) ;
#206 = APPROVAL ( #6, 'UNSPECIFIED' ) ;
#207 =( NAMED_UNIT ( * ) PLANE_ANGLE_UNIT ( ) SI_UNIT ( $, .RADIAN. ) );
#208 = CIRCLE ( 'NONE', #101, 0.7499999999999977796 ) ;
#209 = COORDINATED_UNIVERSAL_TIME_OFFSET ( 1, 0, .AHEAD. ) ;
#210 = LOCAL_TIME ( 7, 15, 28.00000000000000000, #170 ) ;
#211 = APPLICATION_CONTEXT ( 'configuration controlled 3d designs of mechanical parts and assemblies' ) ;
#212 = APPROVAL_DATE_TIME ( #102, #206 ) ;
#213 = CIRCLE ( 'NONE', #25, 0.7399999999999946620 ) ;
#214 = ORIENTED_EDGE ( 'NONE', *, *, #68, .F. ) ;
#215 = FACE_OUTER_BOUND ( 'NONE', #146, .T. ) ;
#216 = CARTESIAN_POINT ( 'NONE',  ( 3.910459099504309358E-14, 5.549111195848812390E-33, 11.19999999999999929 ) ) ;
#217 = CC_DESIGN_APPROVAL ( #21, ( #178 ) ) ;
#218 = ORIENTED_EDGE ( 'NONE', *, *, #90, .F. ) ;
#219 = DIRECTION ( 'NONE',  ( -4.275831445896958607E-31, -1.000000000000000000, -1.224646799147353207E-16 ) ) ;
#220 = DIRECTION ( 'NONE',  ( 3.491481338843133355E-15, -1.224646799147353207E-16, 1.000000000000000000 ) ) ;
#221 = ORGANIZATION ( 'UNSPECIFIED', 'UNSPECIFIED', '' ) ;
#222 = PLANE ( 'NONE',  #13 ) ;
#223 = CONICAL_SURFACE ( 'NONE', #86, 0.7399999999999936628, 1.029744258676649871 ) ;
ENDSEC;
END-ISO-10303-21;
