ISO-10303-21;
HEADER;
FILE_DESCRIPTION (( 'STEP AP203' ),
    '1' );
FILE_NAME ('55399.step',
    '2021-10-08T05:15:27',
    ( '' ),
    ( '' ),
    'SwSTEP 2.0',
    'SolidWorks 2019',
    '' );
FILE_SCHEMA (( 'CONFIG_CONTROL_DESIGN' ));
ENDSEC;

DATA;
#1 = DATE_AND_TIME ( #4, #148 ) ;
#2 = EDGE_LOOP ( 'NONE', ( #152 ) ) ;
#3 = ADVANCED_FACE ( 'NONE', ( #115, #99 ), #110, .T. ) ;
#4 = CALENDAR_DATE ( 2021, 8, 10 ) ;
#5 = EDGE_LOOP ( 'NONE', ( #20 ) ) ;
#6 = DIRECTION ( 'NONE',  ( 4.275831445896958607E-31, 1.000000000000000000, 1.224646799147353454E-16 ) ) ;
#7 = MANIFOLD_SOLID_BREP ( 'Corps-Déplacer/Copier1[1]', #171 ) ;
#8 = DIRECTION ( 'NONE',  ( 4.275831445896959482E-31, 1.000000000000000000, 1.224646799147353207E-16 ) ) ;
#9 = CARTESIAN_POINT ( 'NONE',  ( 0.0000000000000000000, 0.0000000000000000000, 0.0000000000000000000 ) ) ;
#10 = PRODUCT_DEFINITION_FORMATION_WITH_SPECIFIED_SOURCE ( 'ANY', '', #153, .NOT_KNOWN. ) ;
#11 = DIRECTION ( 'NONE',  ( -3.491481338843133355E-15, 1.224646799147353207E-16, -1.000000000000000000 ) ) ;
#12 = VERTEX_POINT ( 'NONE', #159 ) ;
#13 = CIRCLE ( 'NONE', #26, 0.7499999999999977796 ) ;
#14 = MECHANICAL_CONTEXT ( 'NONE', #96, 'mechanical' ) ;
#15 = DIRECTION ( 'NONE',  ( 0.0000000000000000000, 0.0000000000000000000, 1.000000000000000000 ) ) ;
#16 = COORDINATED_UNIVERSAL_TIME_OFFSET ( 1, 0, .AHEAD. ) ;
#17 = LOCAL_TIME ( 7, 15, 27.00000000000000000, #163 ) ;
#18 = PERSON_AND_ORGANIZATION_ROLE ( 'classification_officer' ) ;
#19 = ORIENTED_EDGE ( 'NONE', *, *, #92, .F. ) ;
#20 = ORIENTED_EDGE ( 'NONE', *, *, #201, .T. ) ;
#21 = AXIS2_PLACEMENT_3D ( 'NONE', #137, #38, #68 ) ;
#22 = DIRECTION ( 'NONE',  ( 4.275831445896958607E-31, 1.000000000000000000, 1.224646799147353207E-16 ) ) ;
#23 = DIRECTION ( 'NONE',  ( 3.491481338843133355E-15, -1.224646799147353207E-16, 1.000000000000000000 ) ) ;
#24 = FACE_OUTER_BOUND ( 'NONE', #223, .T. ) ;
#25 = VERTEX_POINT ( 'NONE', #176 ) ;
#26 = AXIS2_PLACEMENT_3D ( 'NONE', #119, #191, #105 ) ;
#27 = FACE_OUTER_BOUND ( 'NONE', #114, .T. ) ;
#28 =( LENGTH_UNIT ( ) NAMED_UNIT ( * ) SI_UNIT ( .MILLI., .METRE. ) );
#29 = VERTEX_POINT ( 'NONE', #129 ) ;
#30 = AXIS2_PLACEMENT_3D ( 'NONE', #124, #173, #158 ) ;
#31 = PERSON_AND_ORGANIZATION_ROLE ( 'design_supplier' ) ;
#32 =( NAMED_UNIT ( * ) PLANE_ANGLE_UNIT ( ) SI_UNIT ( $, .RADIAN. ) );
#33 = ADVANCED_FACE ( 'NONE', ( #205 ), #194, .F. ) ;
#34 = EDGE_LOOP ( 'NONE', ( #183 ) ) ;
#35 = ORIENTED_EDGE ( 'NONE', *, *, #204, .F. ) ;
#36 = DIRECTION ( 'NONE',  ( -3.491481338843133355E-15, 1.224646799147353207E-16, -1.000000000000000000 ) ) ;
#37 = DIRECTION ( 'NONE',  ( -3.491481338843133355E-15, 1.224646799147353207E-16, -1.000000000000000000 ) ) ;
#38 = DIRECTION ( 'NONE',  ( -3.491481338843133355E-15, 1.224646799147353207E-16, -1.000000000000000000 ) ) ;
#39 = FACE_OUTER_BOUND ( 'NONE', #34, .T. ) ;
#40 = CARTESIAN_POINT ( 'NONE',  ( 3.910459099504308727E-14, 2.179539724273589346E-31, 11.19999999999999751 ) ) ;
#41 = PERSON_AND_ORGANIZATION_ROLE ( 'creator' ) ;
#42 = ORGANIZATION ( 'UNSPECIFIED', 'UNSPECIFIED', '' ) ;
#43 = APPLICATION_PROTOCOL_DEFINITION ( 'international standard', 'config_control_design', 1994, #96 ) ;
#44 = APPROVAL_STATUS ( 'not_yet_approved' ) ;
#45 = APPROVAL ( #44, 'UNSPECIFIED' ) ;
#46 = EDGE_LOOP ( 'NONE', ( #155 ) ) ;
#47 = EDGE_LOOP ( 'NONE', ( #154 ) ) ;
#48 = AXIS2_PLACEMENT_3D ( 'NONE', #94, #15, #162 ) ;
#49 = CC_DESIGN_APPROVAL ( #217, ( #203 ) ) ;
#50 = ORIENTED_EDGE ( 'NONE', *, *, #92, .T. ) ;
#51 = ORIENTED_EDGE ( 'NONE', *, *, #177, .T. ) ;
#52 = CC_DESIGN_PERSON_AND_ORGANIZATION_ASSIGNMENT ( #196, #31, ( #10 ) ) ;
#53 = DIRECTION ( 'NONE',  ( -3.491481338843133355E-15, 1.224646799147353207E-16, -1.000000000000000000 ) ) ;
#54 = DIRECTION ( 'NONE',  ( -3.491481338843133355E-15, 1.224646799147353207E-16, -1.000000000000000000 ) ) ;
#55 = VERTEX_POINT ( 'NONE', #140 ) ;
#56 = FACE_OUTER_BOUND ( 'NONE', #200, .T. ) ;
#57 = PERSON_AND_ORGANIZATION ( #103, #42 ) ;
#58 = APPLICATION_PROTOCOL_DEFINITION ( 'international standard', 'config_control_design', 1994, #109 ) ;
#59 = PERSON_AND_ORGANIZATION ( #103, #42 ) ;
#60 = APPROVAL_PERSON_ORGANIZATION ( #61, #217, #74 ) ;
#61 = PERSON_AND_ORGANIZATION ( #103, #42 ) ;
#62 = AXIS2_PLACEMENT_3D ( 'NONE', #40, #85, #170 ) ;
#63 = EDGE_LOOP ( 'NONE', ( #51 ) ) ;
#64 = CARTESIAN_POINT ( 'NONE',  ( 1.040461438975253740E-13, -3.649447461459112464E-15, 29.80000000000000071 ) ) ;
#65 = DIRECTION ( 'NONE',  ( 0.0000000000000000000, 1.000000000000000000, 0.0000000000000000000 ) ) ;
#66 = VERTEX_POINT ( 'NONE', #104 ) ;
#67 = CYLINDRICAL_SURFACE ( 'NONE', #134, 0.7499999999999987788 ) ;
#68 = DIRECTION ( 'NONE',  ( 0.0000000000000000000, 1.000000000000000000, 0.0000000000000000000 ) ) ;
#69 = DATE_AND_TIME ( #106, #174 ) ;
#70 = CALENDAR_DATE ( 2021, 8, 10 ) ;
#71 = CALENDAR_DATE ( 2021, 8, 10 ) ;
#72 = MANIFOLD_SOLID_BREP ( 'Corps-Déplacer/Copier1[2]', #181 ) ;
#73 = CC_DESIGN_APPROVAL ( #107, ( #10 ) ) ;
#74 = APPROVAL_ROLE ( '' ) ;
#75 = EDGE_LOOP ( 'NONE', ( #167 ) ) ;
#76 = CONICAL_SURFACE ( 'NONE', #89, 0.7349999999999935474, 1.029744258676649649 ) ;
#77 = DIRECTION ( 'NONE',  ( 3.491481338843133355E-15, -1.224646799147353207E-16, 1.000000000000000000 ) ) ;
#78 = PRODUCT_DEFINITION ( 'UNKNOWN', '', #10, #198 ) ;
#79 = AXIS2_PLACEMENT_3D ( 'NONE', #207, #36, #211 ) ;
#80 = CYLINDRICAL_SURFACE ( 'NONE', #165, 0.7349999999999933253 ) ;
#81 = DIRECTION ( 'NONE',  ( -5.240625699012932616E-31, -1.000000000000000000, -1.475104996578930529E-16 ) ) ;
#82 = CARTESIAN_POINT ( 'NONE',  ( 3.919530234113143133E-14, 0.7499999999999963363, 11.22598076211353657 ) ) ;
#83 = ADVANCED_FACE ( 'NONE', ( #175 ), #139, .T. ) ;
#84 = CIRCLE ( 'NONE', #132, 0.5500000000000000444 ) ;
#85 = DIRECTION ( 'NONE',  ( 3.491481338843133355E-15, -1.224646799147353207E-16, 1.000000000000000000 ) ) ;
#86 = DIRECTION ( 'NONE',  ( 5.240625699012932616E-31, 1.000000000000000000, 1.475104996578930529E-16 ) ) ;
#87 = DATE_TIME_ROLE ( 'creation_date' ) ;
#88 = PRODUCT_DEFINITION_SHAPE ( 'NONE', 'NONE',  #78 ) ;
#89 = AXIS2_PLACEMENT_3D ( 'NONE', #121, #135, #81 ) ;
#90 = CC_DESIGN_SECURITY_CLASSIFICATION ( #203, ( #10 ) ) ;
#91 = PERSON_AND_ORGANIZATION_ROLE ( 'design_owner' ) ;
#92 = EDGE_CURVE ( 'NONE', #102, #102, #13, .T. ) ;
#93 = SECURITY_CLASSIFICATION_LEVEL ( 'unclassified' ) ;
#94 = CARTESIAN_POINT ( 'NONE',  ( 0.0000000000000000000, 0.0000000000000000000, 0.0000000000000000000 ) ) ;
#95 = LOCAL_TIME ( 7, 15, 27.00000000000000000, #166 ) ;
#96 = APPLICATION_CONTEXT ( 'configuration controlled 3d designs of mechanical parts and assemblies' ) ;
#97 = CC_DESIGN_PERSON_AND_ORGANIZATION_ASSIGNMENT ( #59, #128, ( #10 ) ) ;
#98 = SHAPE_DEFINITION_REPRESENTATION ( #88, #219 ) ;
#99 = FACE_OUTER_BOUND ( 'NONE', #206, .T. ) ;
#100 = EDGE_LOOP ( 'NONE', ( #169 ) ) ;
#101 = FACE_OUTER_BOUND ( 'NONE', #63, .T. ) ;
#102 = VERTEX_POINT ( 'NONE', #82 ) ;
#103 = PERSON ( 'UNSPECIFIED', 'UNSPECIFIED', 'UNSPECIFIED', ('UNSPECIFIED'), ('UNSPECIFIED'), ('UNSPECIFIED') ) ;
#104 = CARTESIAN_POINT ( 'NONE',  ( 1.040461438975253740E-13, 0.7499999999999962252, 29.80000000000000071 ) ) ;
#105 = DIRECTION ( 'NONE',  ( 0.0000000000000000000, 1.000000000000000000, 0.0000000000000000000 ) ) ;
#106 = CALENDAR_DATE ( 2021, 8, 10 ) ;
#107 = APPROVAL ( #125, 'UNSPECIFIED' ) ;
#108 = PERSON_AND_ORGANIZATION ( #103, #42 ) ;
#109 = APPLICATION_CONTEXT ( 'configuration controlled 3d designs of mechanical parts and assemblies' ) ;
#110 = CONICAL_SURFACE ( 'NONE', #142, 0.7499999999999977796, 0.5235987755983333436 ) ;
#111 = APPROVAL_ROLE ( '' ) ;
#112 = CONICAL_SURFACE ( 'NONE', #30, 0.5500000000000000444, 0.7853981633974510546 ) ;
#113 = PRODUCT_RELATED_PRODUCT_CATEGORY ( 'detail', '', ( #153 ) ) ;
#114 = EDGE_LOOP ( 'NONE', ( #35 ) ) ;
#115 = FACE_BOUND ( 'NONE', #100, .T. ) ;
#116 = DIRECTION ( 'NONE',  ( -4.275831445896958607E-31, -1.000000000000000000, -1.224646799147353207E-16 ) ) ;
#117 = CC_DESIGN_APPROVAL ( #45, ( #78 ) ) ;
#118 = LOCAL_TIME ( 7, 15, 27.00000000000000000, #16 ) ;
#119 = CARTESIAN_POINT ( 'NONE',  ( 3.919530234113143133E-14, -1.374786140761210843E-15, 11.22598076211353657 ) ) ;
#120 = ADVANCED_FACE ( 'NONE', ( #56, #161 ), #112, .T. ) ;
#121 = CARTESIAN_POINT ( 'NONE',  ( 1.541951824356641734E-15, -5.408438948619634225E-17, 0.4416325549852577748 ) ) ;
#122 = CARTESIAN_POINT ( 'NONE',  ( 3.910459099504308727E-14, 2.179539724273589346E-31, 11.19999999999999751 ) ) ;
#123 = CC_DESIGN_DATE_AND_TIME_ASSIGNMENT ( #69, #87, ( #78 ) ) ;
#124 = CARTESIAN_POINT ( 'NONE',  ( 1.047444401652940007E-13, -3.673940397442059178E-15, 30.00000000000000000 ) ) ;
#125 = APPROVAL_STATUS ( 'not_yet_approved' ) ;
#126 = DATE_AND_TIME ( #143, #95 ) ;
#127 = APPROVAL_PERSON_ORGANIZATION ( #57, #107, #111 ) ;
#128 = PERSON_AND_ORGANIZATION_ROLE ( 'creator' ) ;
#129 = CARTESIAN_POINT ( 'NONE',  ( 1.541951824356642128E-15, 0.7349999999999935474, 0.4416325549852578858 ) ) ;
#130 =( NAMED_UNIT ( * ) SI_UNIT ( $, .STERADIAN. ) SOLID_ANGLE_UNIT ( ) );
#131 = CC_DESIGN_PERSON_AND_ORGANIZATION_ASSIGNMENT ( #164, #18, ( #203 ) ) ;
#132 = AXIS2_PLACEMENT_3D ( 'NONE', #189, #11, #187 ) ;
#133 = DIRECTION ( 'NONE',  ( 0.0000000000000000000, -1.000000000000000000, 0.0000000000000000000 ) ) ;
#134 = AXIS2_PLACEMENT_3D ( 'NONE', #9, #54, #8 ) ;
#135 = DIRECTION ( 'NONE',  ( 3.491481338843133355E-15, -1.224646799147353207E-16, 1.000000000000000000 ) ) ;
#136 = ADVANCED_FACE ( 'NONE', ( #192 ), #172, .F. ) ;
#137 = CARTESIAN_POINT ( 'NONE',  ( 3.910459099504308727E-14, -1.371604415045035316E-15, 11.19999999999999751 ) ) ;
#138 = DIRECTION ( 'NONE',  ( -3.491481338843133355E-15, 1.224646799147353207E-16, -1.000000000000000000 ) ) ;
#139 = PLANE ( 'NONE',  #213 ) ;
#140 = CARTESIAN_POINT ( 'NONE',  ( 3.910459099504308727E-14, 0.7349999999999917710, 11.19999999999999751 ) ) ;
#141 = ADVANCED_FACE ( 'NONE', ( #27, #160 ), #80, .T. ) ;
#142 = AXIS2_PLACEMENT_3D ( 'NONE', #186, #77, #133 ) ;
#143 = CALENDAR_DATE ( 2021, 8, 10 ) ;
#144 = APPROVAL_ROLE ( '' ) ;
#145 = EDGE_CURVE ( 'NONE', #12, #12, #84, .T. ) ;
#146 = DATE_AND_TIME ( #70, #17 ) ;
#147 = DATE_AND_TIME ( #71, #118 ) ;
#148 = LOCAL_TIME ( 7, 15, 27.00000000000000000, #150 ) ;
#149 = CC_DESIGN_PERSON_AND_ORGANIZATION_ASSIGNMENT ( #108, #41, ( #78 ) ) ;
#150 = COORDINATED_UNIVERSAL_TIME_OFFSET ( 1, 0, .AHEAD. ) ;
#151 = AXIS2_PLACEMENT_3D ( 'NONE', #64, #37, #65 ) ;
#152 = ORIENTED_EDGE ( 'NONE', *, *, #145, .T. ) ;
#153 = PRODUCT ( '55399', '55399', '', ( #14 ) ) ;
#154 = ORIENTED_EDGE ( 'NONE', *, *, #184, .T. ) ;
#155 = ORIENTED_EDGE ( 'NONE', *, *, #184, .F. ) ;
#156 = CIRCLE ( 'NONE', #151, 0.7499999999999998890 ) ;
#157 = CARTESIAN_POINT ( 'NONE',  ( 0.0000000000000000000, 0.0000000000000000000, 0.0000000000000000000 ) ) ;
#158 = DIRECTION ( 'NONE',  ( 0.0000000000000000000, 1.000000000000000000, 0.0000000000000000000 ) ) ;
#159 = CARTESIAN_POINT ( 'NONE',  ( 1.047444401652940007E-13, 0.5499999999999963807, 30.00000000000000000 ) ) ;
#160 = FACE_OUTER_BOUND ( 'NONE', #47, .T. ) ;
#161 = FACE_BOUND ( 'NONE', #2, .T. ) ;
#162 = DIRECTION ( 'NONE',  ( 1.000000000000000000, 0.0000000000000000000, 0.0000000000000000000 ) ) ;
#163 = COORDINATED_UNIVERSAL_TIME_OFFSET ( 1, 0, .AHEAD. ) ;
#164 = PERSON_AND_ORGANIZATION ( #103, #42 ) ;
#165 = AXIS2_PLACEMENT_3D ( 'NONE', #157, #138, #6 ) ;
#166 = COORDINATED_UNIVERSAL_TIME_OFFSET ( 1, 0, .AHEAD. ) ;
#167 = ORIENTED_EDGE ( 'NONE', *, *, #145, .F. ) ;
#168 = APPROVAL_PERSON_ORGANIZATION ( #178, #45, #144 ) ;
#169 = ORIENTED_EDGE ( 'NONE', *, *, #201, .F. ) ;
#170 = DIRECTION ( 'NONE',  ( -4.275831445896958607E-31, -1.000000000000000000, -1.224646799147353207E-16 ) ) ;
#171 = CLOSED_SHELL ( 'NONE', ( #33, #3, #190, #120, #136 ) ) ;
#172 = PLANE ( 'NONE',  #195 ) ;
#173 = DIRECTION ( 'NONE',  ( -3.491481338843133355E-15, 1.224646799147353207E-16, -1.000000000000000000 ) ) ;
#174 = LOCAL_TIME ( 7, 15, 27.00000000000000000, #215 ) ;
#175 = FACE_OUTER_BOUND ( 'NONE', #46, .T. ) ;
#176 = CARTESIAN_POINT ( 'NONE',  ( 3.910459099504308727E-14, 0.7349999999999917710, 11.19999999999999751 ) ) ;
#177 = EDGE_CURVE ( 'NONE', #66, #66, #156, .T. ) ;
#178 = PERSON_AND_ORGANIZATION ( #103, #42 ) ;
#179 = CC_DESIGN_PERSON_AND_ORGANIZATION_ASSIGNMENT ( #220, #91, ( #153 ) ) ;
#180 = APPROVAL_STATUS ( 'not_yet_approved' ) ;
#181 = CLOSED_SHELL ( 'NONE', ( #182, #141, #83 ) ) ;
#182 = ADVANCED_FACE ( 'NONE', ( #39 ), #76, .T. ) ;
#183 = ORIENTED_EDGE ( 'NONE', *, *, #204, .T. ) ;
#184 = EDGE_CURVE ( 'NONE', #55, #55, #188, .T. ) ;
#185 = CIRCLE ( 'NONE', #21, 0.7349999999999931033 ) ;
#186 = CARTESIAN_POINT ( 'NONE',  ( 3.919530234113143133E-14, -1.374786140761210843E-15, 11.22598076211353657 ) ) ;
#187 = DIRECTION ( 'NONE',  ( 0.0000000000000000000, 1.000000000000000000, 0.0000000000000000000 ) ) ;
#188 = CIRCLE ( 'NONE', #79, 0.7349999999999931033 ) ;
#189 = CARTESIAN_POINT ( 'NONE',  ( 1.047444401652940007E-13, -3.673940397442059178E-15, 30.00000000000000000 ) ) ;
#190 = ADVANCED_FACE ( 'NONE', ( #24, #101 ), #67, .T. ) ;
#191 = DIRECTION ( 'NONE',  ( -3.491481338843133355E-15, 1.224646799147353207E-16, -1.000000000000000000 ) ) ;
#192 = FACE_OUTER_BOUND ( 'NONE', #75, .T. ) ;
#193 = AXIS2_PLACEMENT_3D ( 'NONE', #210, #208, #86 ) ;
#194 = PLANE ( 'NONE',  #62 ) ;
#195 = AXIS2_PLACEMENT_3D ( 'NONE', #212, #53, #22 ) ;
#196 = PERSON_AND_ORGANIZATION ( #103, #42 ) ;
#197 = APPROVAL_DATE_TIME ( #126, #45 ) ;
#198 = DESIGN_CONTEXT ( 'detailed design', #109, 'design' ) ;
#199 = ORIENTED_EDGE ( 'NONE', *, *, #177, .F. ) ;
#200 = EDGE_LOOP ( 'NONE', ( #199 ) ) ;
#201 = EDGE_CURVE ( 'NONE', #25, #25, #185, .T. ) ;
#202 = UNCERTAINTY_MEASURE_WITH_UNIT (LENGTH_MEASURE( 1.000000000000000082E-05 ), #28, 'distance_accuracy_value', 'NONE');
#203 = SECURITY_CLASSIFICATION ( '', '', #93 ) ;
#204 = EDGE_CURVE ( 'NONE', #29, #29, #209, .T. ) ;
#205 = FACE_OUTER_BOUND ( 'NONE', #5, .T. ) ;
#206 = EDGE_LOOP ( 'NONE', ( #50 ) ) ;
#207 = CARTESIAN_POINT ( 'NONE',  ( 3.910459099504308727E-14, -1.371604415045035316E-15, 11.19999999999999751 ) ) ;
#208 = DIRECTION ( 'NONE',  ( -3.491481338843133355E-15, 1.224646799147353207E-16, -1.000000000000000000 ) ) ;
#209 = CIRCLE ( 'NONE', #193, 0.7349999999999935474 ) ;
#210 = CARTESIAN_POINT ( 'NONE',  ( 1.541951824356641734E-15, -5.408438948619634225E-17, 0.4416325549852577748 ) ) ;
#211 = DIRECTION ( 'NONE',  ( 0.0000000000000000000, 1.000000000000000000, 0.0000000000000000000 ) ) ;
#212 = CARTESIAN_POINT ( 'NONE',  ( 1.047444401652940007E-13, 4.124339402320052999E-33, 30.00000000000000000 ) ) ;
#213 = AXIS2_PLACEMENT_3D ( 'NONE', #122, #23, #116 ) ;
#214 = CC_DESIGN_DATE_AND_TIME_ASSIGNMENT ( #147, #218, ( #203 ) ) ;
#215 = COORDINATED_UNIVERSAL_TIME_OFFSET ( 1, 0, .AHEAD. ) ;
#216 = APPROVAL_DATE_TIME ( #146, #107 ) ;
#217 = APPROVAL ( #180, 'UNSPECIFIED' ) ;
#218 = DATE_TIME_ROLE ( 'classification_date' ) ;
#219 = ADVANCED_BREP_SHAPE_REPRESENTATION ( '55399', ( #7, #72, #48 ), #221 ) ;
#220 = PERSON_AND_ORGANIZATION ( #103, #42 ) ;
#221 =( GEOMETRIC_REPRESENTATION_CONTEXT ( 3 ) GLOBAL_UNCERTAINTY_ASSIGNED_CONTEXT ( ( #202 ) ) GLOBAL_UNIT_ASSIGNED_CONTEXT ( ( #28, #32, #130 ) ) REPRESENTATION_CONTEXT ( 'NONE', 'WORKASPACE' ) );
#222 = APPROVAL_DATE_TIME ( #1, #217 ) ;
#223 = EDGE_LOOP ( 'NONE', ( #19 ) ) ;
ENDSEC;
END-ISO-10303-21;
