ISO-10303-21;
HEADER;
FILE_DESCRIPTION (( 'STEP AP203' ),
    '1' );
FILE_NAME ('55398.step',
    '2021-10-08T05:15:26',
    ( '' ),
    ( '' ),
    'SwSTEP 2.0',
    'SolidWorks 2019',
    '' );
FILE_SCHEMA (( 'CONFIG_CONTROL_DESIGN' ));
ENDSEC;

DATA;
#1 = CYLINDRICAL_SURFACE ( 'NONE', #80, 0.7299999999999952083 ) ;
#2 = ORGANIZATION ( 'UNSPECIFIED', 'UNSPECIFIED', '' ) ;
#3 = DIRECTION ( 'NONE',  ( 0.0000000000000000000, 0.0000000000000000000, 1.000000000000000000 ) ) ;
#4 = ORIENTED_EDGE ( 'NONE', *, *, #23, .T. ) ;
#5 = AXIS2_PLACEMENT_3D ( 'NONE', #75, #60, #181 ) ;
#6 = APPROVAL_DATE_TIME ( #84, #93 ) ;
#7 = PRODUCT_RELATED_PRODUCT_CATEGORY ( 'detail', '', ( #166 ) ) ;
#8 = CALENDAR_DATE ( 2021, 8, 10 ) ;
#9 = AXIS2_PLACEMENT_3D ( 'NONE', #148, #172, #130 ) ;
#10 = EDGE_LOOP ( 'NONE', ( #209 ) ) ;
#11 = CLOSED_SHELL ( 'NONE', ( #27, #155, #103, #141, #118 ) ) ;
#12 = DIRECTION ( 'NONE',  ( 3.491481338843133355E-15, -1.224646799147353207E-16, 1.000000000000000000 ) ) ;
#13 = APPLICATION_PROTOCOL_DEFINITION ( 'international standard', 'config_control_design', 1994, #17 ) ;
#14 = PERSON_AND_ORGANIZATION_ROLE ( 'creator' ) ;
#15 = CC_DESIGN_PERSON_AND_ORGANIZATION_ASSIGNMENT ( #193, #207, ( #81 ) ) ;
#16 = APPROVAL_ROLE ( '' ) ;
#17 = APPLICATION_CONTEXT ( 'configuration controlled 3d designs of mechanical parts and assemblies' ) ;
#18 = APPROVAL_PERSON_ORGANIZATION ( #136, #88, #202 ) ;
#19 = APPROVAL ( #89, 'UNSPECIFIED' ) ;
#20 = ORIENTED_EDGE ( 'NONE', *, *, #210, .T. ) ;
#21 = AXIS2_PLACEMENT_3D ( 'NONE', #32, #97, #57 ) ;
#22 = SECURITY_CLASSIFICATION_LEVEL ( 'unclassified' ) ;
#23 = EDGE_CURVE ( 'NONE', #49, #49, #213, .T. ) ;
#24 = AXIS2_PLACEMENT_3D ( 'NONE', #43, #94, #219 ) ;
#25 = FACE_OUTER_BOUND ( 'NONE', #61, .T. ) ;
#26 = CARTESIAN_POINT ( 'NONE',  ( 1.531462356163738859E-15, -5.371646846928343567E-17, 0.4386282518901198912 ) ) ;
#27 = ADVANCED_FACE ( 'NONE', ( #182 ), #59, .F. ) ;
#28 = DIRECTION ( 'NONE',  ( 0.0000000000000000000, 1.000000000000000000, 0.0000000000000000000 ) ) ;
#29 = CARTESIAN_POINT ( 'NONE',  ( 1.047444401652940007E-13, -3.673940397442059178E-15, 30.00000000000000000 ) ) ;
#30 = AXIS2_PLACEMENT_3D ( 'NONE', #111, #126, #47 ) ;
#31 = APPLICATION_CONTEXT ( 'configuration controlled 3d designs of mechanical parts and assemblies' ) ;
#32 = CARTESIAN_POINT ( 'NONE',  ( 1.047444401652940007E-13, -3.673940397442059178E-15, 30.00000000000000000 ) ) ;
#33 = CARTESIAN_POINT ( 'NONE',  ( 1.531462356163739254E-15, 0.7299999999999935429, 0.4386282518901200023 ) ) ;
#34 = AXIS2_PLACEMENT_3D ( 'NONE', #92, #129, #46 ) ;
#35 = DESIGN_CONTEXT ( 'detailed design', #31, 'design' ) ;
#36 = APPROVAL_DATE_TIME ( #99, #88 ) ;
#37 = APPLICATION_PROTOCOL_DEFINITION ( 'international standard', 'config_control_design', 1994, #31 ) ;
#38 = CONICAL_SURFACE ( 'NONE', #124, 0.7499999999999977796, 0.5235987755982568492 ) ;
#39 = PERSON_AND_ORGANIZATION ( #55, #2 ) ;
#40 = COORDINATED_UNIVERSAL_TIME_OFFSET ( 1, 0, .AHEAD. ) ;
#41 = ADVANCED_FACE ( 'NONE', ( #183 ), #157, .T. ) ;
#42 = PERSON_AND_ORGANIZATION ( #55, #2 ) ;
#43 = CARTESIAN_POINT ( 'NONE',  ( 0.0000000000000000000, 0.0000000000000000000, 0.0000000000000000000 ) ) ;
#44 = FACE_OUTER_BOUND ( 'NONE', #113, .T. ) ;
#45 = ORIENTED_EDGE ( 'NONE', *, *, #63, .T. ) ;
#46 = DIRECTION ( 'NONE',  ( 0.0000000000000000000, 1.000000000000000000, 0.0000000000000000000 ) ) ;
#47 = DIRECTION ( 'NONE',  ( 0.0000000000000000000, 1.000000000000000000, 0.0000000000000000000 ) ) ;
#48 = APPROVAL_STATUS ( 'not_yet_approved' ) ;
#49 = VERTEX_POINT ( 'NONE', #186 ) ;
#50 = COORDINATED_UNIVERSAL_TIME_OFFSET ( 1, 0, .AHEAD. ) ;
#51 = SECURITY_CLASSIFICATION ( '', '', #22 ) ;
#52 = VERTEX_POINT ( 'NONE', #104 ) ;
#53 = APPROVAL_ROLE ( '' ) ;
#54 = APPROVAL_DATE_TIME ( #162, #19 ) ;
#55 = PERSON ( 'UNSPECIFIED', 'UNSPECIFIED', 'UNSPECIFIED', ('UNSPECIFIED'), ('UNSPECIFIED'), ('UNSPECIFIED') ) ;
#56 = FACE_OUTER_BOUND ( 'NONE', #69, .T. ) ;
#57 = DIRECTION ( 'NONE',  ( 0.0000000000000000000, 1.000000000000000000, 0.0000000000000000000 ) ) ;
#58 =( GEOMETRIC_REPRESENTATION_CONTEXT ( 3 ) GLOBAL_UNCERTAINTY_ASSIGNED_CONTEXT ( ( #131 ) ) GLOBAL_UNIT_ASSIGNED_CONTEXT ( ( #187, #138, #158 ) ) REPRESENTATION_CONTEXT ( 'NONE', 'WORKASPACE' ) );
#59 = PLANE ( 'NONE',  #203 ) ;
#60 = DIRECTION ( 'NONE',  ( 3.491481338843133355E-15, -1.224646799147353207E-16, 1.000000000000000000 ) ) ;
#61 = EDGE_LOOP ( 'NONE', ( #153 ) ) ;
#62 = DIRECTION ( 'NONE',  ( 4.275831445896958607E-31, 1.000000000000000000, 1.224646799147353207E-16 ) ) ;
#63 = EDGE_CURVE ( 'NONE', #52, #52, #139, .T. ) ;
#64 = DATE_AND_TIME ( #223, #125 ) ;
#65 = ADVANCED_BREP_SHAPE_REPRESENTATION ( '55398', ( #163, #159, #151 ), #58 ) ;
#66 = DIRECTION ( 'NONE',  ( 1.000000000000000000, 0.0000000000000000000, 0.0000000000000000000 ) ) ;
#67 = CONICAL_SURFACE ( 'NONE', #21, 0.5500000000000000444, 0.7853981633974510546 ) ;
#68 = LOCAL_TIME ( 7, 15, 26.00000000000000000, #145 ) ;
#69 = EDGE_LOOP ( 'NONE', ( #20 ) ) ;
#70 = CC_DESIGN_PERSON_AND_ORGANIZATION_ASSIGNMENT ( #121, #190, ( #166 ) ) ;
#71 = ORIENTED_EDGE ( 'NONE', *, *, #194, .T. ) ;
#72 = COORDINATED_UNIVERSAL_TIME_OFFSET ( 1, 0, .AHEAD. ) ;
#73 = LOCAL_TIME ( 7, 15, 26.00000000000000000, #50 ) ;
#74 = FACE_OUTER_BOUND ( 'NONE', #112, .T. ) ;
#75 = CARTESIAN_POINT ( 'NONE',  ( 3.910459099504309358E-14, 5.474123206715736067E-33, 11.19999999999999929 ) ) ;
#76 = ORIENTED_EDGE ( 'NONE', *, *, #165, .F. ) ;
#77 = DIRECTION ( 'NONE',  ( -4.275831445896958607E-31, -1.000000000000000000, -1.224646799147353207E-16 ) ) ;
#78 = VERTEX_POINT ( 'NONE', #156 ) ;
#79 = COORDINATED_UNIVERSAL_TIME_OFFSET ( 1, 0, .AHEAD. ) ;
#80 = AXIS2_PLACEMENT_3D ( 'NONE', #175, #221, #62 ) ;
#81 = PRODUCT_DEFINITION_FORMATION_WITH_SPECIFIED_SOURCE ( 'ANY', '', #166, .NOT_KNOWN. ) ;
#82 = CARTESIAN_POINT ( 'NONE',  ( 1.040461438975253740E-13, -3.649447461459112464E-15, 29.80000000000000071 ) ) ;
#83 = DIRECTION ( 'NONE',  ( 0.0000000000000000000, 1.000000000000000000, 0.0000000000000000000 ) ) ;
#84 = DATE_AND_TIME ( #8, #68 ) ;
#85 = EDGE_LOOP ( 'NONE', ( #164 ) ) ;
#86 = SHAPE_DEFINITION_REPRESENTATION ( #98, #65 ) ;
#87 = AXIS2_PLACEMENT_3D ( 'NONE', #82, #102, #83 ) ;
#88 = APPROVAL ( #48, 'UNSPECIFIED' ) ;
#89 = APPROVAL_STATUS ( 'not_yet_approved' ) ;
#90 = CC_DESIGN_SECURITY_CLASSIFICATION ( #51, ( #81 ) ) ;
#91 = EDGE_LOOP ( 'NONE', ( #4 ) ) ;
#92 = CARTESIAN_POINT ( 'NONE',  ( 3.910459099504309358E-14, -1.371604415045035513E-15, 11.19999999999999929 ) ) ;
#93 = APPROVAL ( #201, 'UNSPECIFIED' ) ;
#94 = DIRECTION ( 'NONE',  ( -3.491481338843133355E-15, 1.224646799147353207E-16, -1.000000000000000000 ) ) ;
#95 = CIRCLE ( 'NONE', #206, 0.7499999999999977796 ) ;
#96 = CYLINDRICAL_SURFACE ( 'NONE', #24, 0.7499999999999987788 ) ;
#97 = DIRECTION ( 'NONE',  ( -3.491481338843133355E-15, 1.224646799147353207E-16, -1.000000000000000000 ) ) ;
#98 = PRODUCT_DEFINITION_SHAPE ( 'NONE', 'NONE',  #146 ) ;
#99 = DATE_AND_TIME ( #188, #73 ) ;
#100 = CC_DESIGN_APPROVAL ( #19, ( #51 ) ) ;
#101 = PERSON_AND_ORGANIZATION ( #55, #2 ) ;
#102 = DIRECTION ( 'NONE',  ( -3.491481338843133355E-15, 1.224646799147353207E-16, -1.000000000000000000 ) ) ;
#103 = ADVANCED_FACE ( 'NONE', ( #44, #56 ), #96, .T. ) ;
#104 = CARTESIAN_POINT ( 'NONE',  ( 1.047444401652940007E-13, 0.5499999999999963807, 30.00000000000000000 ) ) ;
#105 = LOCAL_TIME ( 7, 15, 26.00000000000000000, #72 ) ;
#106 = ORIENTED_EDGE ( 'NONE', *, *, #165, .T. ) ;
#107 = ADVANCED_FACE ( 'NONE', ( #168 ), #150, .T. ) ;
#108 = PERSON_AND_ORGANIZATION_ROLE ( 'creator' ) ;
#109 = CLOSED_SHELL ( 'NONE', ( #41, #205, #107 ) ) ;
#110 = CALENDAR_DATE ( 2021, 8, 10 ) ;
#111 = CARTESIAN_POINT ( 'NONE',  ( 3.910459099504309358E-14, -1.371604415045035513E-15, 11.19999999999999929 ) ) ;
#112 = EDGE_LOOP ( 'NONE', ( #71 ) ) ;
#113 = EDGE_LOOP ( 'NONE', ( #214 ) ) ;
#114 = DIRECTION ( 'NONE',  ( 5.276520395581515180E-31, 1.000000000000000000, 1.485208455459608370E-16 ) ) ;
#115 = CC_DESIGN_DATE_AND_TIME_ASSIGNMENT ( #140, #211, ( #51 ) ) ;
#116 = DIRECTION ( 'NONE',  ( 3.491481338843133355E-15, -1.224646799147353207E-16, 1.000000000000000000 ) ) ;
#117 = VERTEX_POINT ( 'NONE', #33 ) ;
#118 = ADVANCED_FACE ( 'NONE', ( #25 ), #154, .F. ) ;
#119 = FACE_OUTER_BOUND ( 'NONE', #91, .T. ) ;
#120 = CARTESIAN_POINT ( 'NONE',  ( 3.910459099504309358E-14, 0.7299999999999954303, 11.19999999999999929 ) ) ;
#121 = PERSON_AND_ORGANIZATION ( #55, #2 ) ;
#122 = PERSON_AND_ORGANIZATION_ROLE ( 'classification_officer' ) ;
#123 = ORIENTED_EDGE ( 'NONE', *, *, #192, .F. ) ;
#124 = AXIS2_PLACEMENT_3D ( 'NONE', #147, #127, #196 ) ;
#125 = LOCAL_TIME ( 7, 15, 26.00000000000000000, #79 ) ;
#126 = DIRECTION ( 'NONE',  ( -3.491481338843133355E-15, 1.224646799147353207E-16, -1.000000000000000000 ) ) ;
#127 = DIRECTION ( 'NONE',  ( 3.491481338843133355E-15, -1.224646799147353207E-16, 1.000000000000000000 ) ) ;
#128 = CIRCLE ( 'NONE', #34, 0.7299999999999968736 ) ;
#129 = DIRECTION ( 'NONE',  ( -3.491481338843133355E-15, 1.224646799147353207E-16, -1.000000000000000000 ) ) ;
#130 = DIRECTION ( 'NONE',  ( 4.275831445896958607E-31, 1.000000000000000000, 1.224646799147353207E-16 ) ) ;
#131 = UNCERTAINTY_MEASURE_WITH_UNIT (LENGTH_MEASURE( 1.000000000000000082E-05 ), #187, 'distance_accuracy_value', 'NONE');
#132 = EDGE_LOOP ( 'NONE', ( #123 ) ) ;
#133 = VERTEX_POINT ( 'NONE', #120 ) ;
#134 = CC_DESIGN_APPROVAL ( #88, ( #146 ) ) ;
#135 = DATE_TIME_ROLE ( 'creation_date' ) ;
#136 = PERSON_AND_ORGANIZATION ( #55, #2 ) ;
#137 = CC_DESIGN_DATE_AND_TIME_ASSIGNMENT ( #64, #135, ( #146 ) ) ;
#138 =( NAMED_UNIT ( * ) PLANE_ANGLE_UNIT ( ) SI_UNIT ( $, .RADIAN. ) );
#139 = CIRCLE ( 'NONE', #176, 0.5500000000000000444 ) ;
#140 = DATE_AND_TIME ( #143, #105 ) ;
#141 = ADVANCED_FACE ( 'NONE', ( #215, #199 ), #67, .T. ) ;
#142 = EDGE_LOOP ( 'NONE', ( #45 ) ) ;
#143 = CALENDAR_DATE ( 2021, 8, 10 ) ;
#144 = EDGE_LOOP ( 'NONE', ( #177 ) ) ;
#145 = COORDINATED_UNIVERSAL_TIME_OFFSET ( 1, 0, .AHEAD. ) ;
#146 = PRODUCT_DEFINITION ( 'UNKNOWN', '', #81, #35 ) ;
#147 = CARTESIAN_POINT ( 'NONE',  ( 3.922553945649420637E-14, -1.375846715999935887E-15, 11.23464101615138233 ) ) ;
#148 = CARTESIAN_POINT ( 'NONE',  ( 1.047444401652940007E-13, 4.124339402320052999E-33, 30.00000000000000000 ) ) ;
#149 = CC_DESIGN_PERSON_AND_ORGANIZATION_ASSIGNMENT ( #174, #14, ( #146 ) ) ;
#150 = PLANE ( 'NONE',  #5 ) ;
#151 = AXIS2_PLACEMENT_3D ( 'NONE', #161, #3, #66 ) ;
#152 = APPROVAL_PERSON_ORGANIZATION ( #101, #93, #16 ) ;
#153 = ORIENTED_EDGE ( 'NONE', *, *, #63, .F. ) ;
#154 = PLANE ( 'NONE',  #9 ) ;
#155 = ADVANCED_FACE ( 'NONE', ( #173, #74 ), #38, .T. ) ;
#156 = CARTESIAN_POINT ( 'NONE',  ( 3.922553945649420637E-14, 0.7499999999999963363, 11.23464101615138233 ) ) ;
#157 = CONICAL_SURFACE ( 'NONE', #191, 0.7299999999999935429, 1.029744258676649649 ) ;
#158 =( NAMED_UNIT ( * ) SI_UNIT ( $, .STERADIAN. ) SOLID_ANGLE_UNIT ( ) );
#159 = MANIFOLD_SOLID_BREP ( 'Corps-Déplacer/Copier1[2]', #109 ) ;
#160 = FACE_OUTER_BOUND ( 'NONE', #184, .T. ) ;
#161 = CARTESIAN_POINT ( 'NONE',  ( 0.0000000000000000000, 0.0000000000000000000, 0.0000000000000000000 ) ) ;
#162 = DATE_AND_TIME ( #110, #218 ) ;
#163 = MANIFOLD_SOLID_BREP ( 'Corps-Déplacer/Copier1[1]', #11 ) ;
#164 = ORIENTED_EDGE ( 'NONE', *, *, #23, .F. ) ;
#165 = EDGE_CURVE ( 'NONE', #117, #117, #171, .T. ) ;
#166 = PRODUCT ( '55398', '55398', '', ( #204 ) ) ;
#167 = CIRCLE ( 'NONE', #87, 0.7499999999999998890 ) ;
#168 = FACE_OUTER_BOUND ( 'NONE', #85, .T. ) ;
#169 = CARTESIAN_POINT ( 'NONE',  ( 3.922553945649420637E-14, -1.375846715999935887E-15, 11.23464101615138233 ) ) ;
#170 = DIRECTION ( 'NONE',  ( -3.491481338843133355E-15, 1.224646799147353207E-16, -1.000000000000000000 ) ) ;
#171 = CIRCLE ( 'NONE', #217, 0.7299999999999935429 ) ;
#172 = DIRECTION ( 'NONE',  ( -3.491481338843133355E-15, 1.224646799147353207E-16, -1.000000000000000000 ) ) ;
#173 = FACE_BOUND ( 'NONE', #132, .T. ) ;
#174 = PERSON_AND_ORGANIZATION ( #55, #2 ) ;
#175 = CARTESIAN_POINT ( 'NONE',  ( 0.0000000000000000000, 0.0000000000000000000, 0.0000000000000000000 ) ) ;
#176 = AXIS2_PLACEMENT_3D ( 'NONE', #29, #170, #28 ) ;
#177 = ORIENTED_EDGE ( 'NONE', *, *, #192, .T. ) ;
#178 = CC_DESIGN_PERSON_AND_ORGANIZATION_ASSIGNMENT ( #42, #122, ( #51 ) ) ;
#179 = PERSON_AND_ORGANIZATION ( #55, #2 ) ;
#180 = EDGE_LOOP ( 'NONE', ( #106 ) ) ;
#181 = DIRECTION ( 'NONE',  ( -4.275831445896958607E-31, -1.000000000000000000, -1.224646799147353207E-16 ) ) ;
#182 = FACE_OUTER_BOUND ( 'NONE', #144, .T. ) ;
#183 = FACE_OUTER_BOUND ( 'NONE', #180, .T. ) ;
#184 = EDGE_LOOP ( 'NONE', ( #76 ) ) ;
#185 = DIRECTION ( 'NONE',  ( -5.276520395581515180E-31, -1.000000000000000000, -1.485208455459608370E-16 ) ) ;
#186 = CARTESIAN_POINT ( 'NONE',  ( 3.910459099504309358E-14, 0.7299999999999954303, 11.19999999999999929 ) ) ;
#187 =( LENGTH_UNIT ( ) NAMED_UNIT ( * ) SI_UNIT ( .MILLI., .METRE. ) );
#188 = CALENDAR_DATE ( 2021, 8, 10 ) ;
#189 = VERTEX_POINT ( 'NONE', #200 ) ;
#190 = PERSON_AND_ORGANIZATION_ROLE ( 'design_owner' ) ;
#191 = AXIS2_PLACEMENT_3D ( 'NONE', #195, #116, #185 ) ;
#192 = EDGE_CURVE ( 'NONE', #133, #133, #128, .T. ) ;
#193 = PERSON_AND_ORGANIZATION ( #55, #2 ) ;
#194 = EDGE_CURVE ( 'NONE', #78, #78, #95, .T. ) ;
#195 = CARTESIAN_POINT ( 'NONE',  ( 1.531462356163738859E-15, -5.371646846928343567E-17, 0.4386282518901198912 ) ) ;
#196 = DIRECTION ( 'NONE',  ( 0.0000000000000000000, -1.000000000000000000, 0.0000000000000000000 ) ) ;
#197 = DIRECTION ( 'NONE',  ( 0.0000000000000000000, 1.000000000000000000, 0.0000000000000000000 ) ) ;
#198 = DIRECTION ( 'NONE',  ( -3.491481338843133355E-15, 1.224646799147353207E-16, -1.000000000000000000 ) ) ;
#199 = FACE_BOUND ( 'NONE', #142, .T. ) ;
#200 = CARTESIAN_POINT ( 'NONE',  ( 1.040461438975253740E-13, 0.7499999999999962252, 29.80000000000000071 ) ) ;
#201 = APPROVAL_STATUS ( 'not_yet_approved' ) ;
#202 = APPROVAL_ROLE ( '' ) ;
#203 = AXIS2_PLACEMENT_3D ( 'NONE', #220, #12, #77 ) ;
#204 = MECHANICAL_CONTEXT ( 'NONE', #17, 'mechanical' ) ;
#205 = ADVANCED_FACE ( 'NONE', ( #160, #119 ), #1, .T. ) ;
#206 = AXIS2_PLACEMENT_3D ( 'NONE', #169, #216, #197 ) ;
#207 = PERSON_AND_ORGANIZATION_ROLE ( 'design_supplier' ) ;
#208 = APPROVAL_PERSON_ORGANIZATION ( #179, #19, #53 ) ;
#209 = ORIENTED_EDGE ( 'NONE', *, *, #210, .F. ) ;
#210 = EDGE_CURVE ( 'NONE', #189, #189, #167, .T. ) ;
#211 = DATE_TIME_ROLE ( 'classification_date' ) ;
#212 = CC_DESIGN_PERSON_AND_ORGANIZATION_ASSIGNMENT ( #39, #108, ( #81 ) ) ;
#213 = CIRCLE ( 'NONE', #30, 0.7299999999999968736 ) ;
#214 = ORIENTED_EDGE ( 'NONE', *, *, #194, .F. ) ;
#215 = FACE_OUTER_BOUND ( 'NONE', #10, .T. ) ;
#216 = DIRECTION ( 'NONE',  ( -3.491481338843133355E-15, 1.224646799147353207E-16, -1.000000000000000000 ) ) ;
#217 = AXIS2_PLACEMENT_3D ( 'NONE', #26, #198, #114 ) ;
#218 = LOCAL_TIME ( 7, 15, 26.00000000000000000, #40 ) ;
#219 = DIRECTION ( 'NONE',  ( 4.275831445896959482E-31, 1.000000000000000000, 1.224646799147353207E-16 ) ) ;
#220 = CARTESIAN_POINT ( 'NONE',  ( 3.910459099504309358E-14, 5.474123206715736067E-33, 11.19999999999999929 ) ) ;
#221 = DIRECTION ( 'NONE',  ( -3.491481338843133355E-15, 1.224646799147353207E-16, -1.000000000000000000 ) ) ;
#222 = CC_DESIGN_APPROVAL ( #93, ( #81 ) ) ;
#223 = CALENDAR_DATE ( 2021, 8, 10 ) ;
ENDSEC;
END-ISO-10303-21;
