ISO-10303-21;
HEADER;
FILE_DESCRIPTION (( 'STEP AP203' ),
    '1' );
FILE_NAME ('55397.step',
    '2021-10-08T05:15:26',
    ( '' ),
    ( '' ),
    'SwSTEP 2.0',
    'SolidWorks 2019',
    '' );
FILE_SCHEMA (( 'CONFIG_CONTROL_DESIGN' ));
ENDSEC;

DATA;
#1 = DIRECTION ( 'NONE',  ( 0.0000000000000000000, 1.000000000000000000, 0.0000000000000000000 ) ) ;
#2 = CARTESIAN_POINT ( 'NONE',  ( 1.040461438975253740E-13, -3.649447461459112464E-15, 29.80000000000000071 ) ) ;
#3 = CARTESIAN_POINT ( 'NONE',  ( 3.910459099504309989E-14, -2.070057260139275459E-31, 11.20000000000000107 ) ) ;
#4 = AXIS2_PLACEMENT_3D ( 'NONE', #119, #86, #101 ) ;
#5 = LOCAL_TIME ( 7, 15, 26.00000000000000000, #214 ) ;
#6 = DIRECTION ( 'NONE',  ( 3.491481338843133355E-15, -1.224646799147353207E-16, 1.000000000000000000 ) ) ;
#7 = PLANE ( 'NONE',  #184 ) ;
#8 = CIRCLE ( 'NONE', #79, 0.7249999999999935385 ) ;
#9 = PRODUCT_DEFINITION_FORMATION_WITH_SPECIFIED_SOURCE ( 'ANY', '', #134, .NOT_KNOWN. ) ;
#10 = APPLICATION_PROTOCOL_DEFINITION ( 'international standard', 'config_control_design', 1994, #75 ) ;
#11 = PERSON_AND_ORGANIZATION_ROLE ( 'design_supplier' ) ;
#12 = ORIENTED_EDGE ( 'NONE', *, *, #116, .F. ) ;
#13 = AXIS2_PLACEMENT_3D ( 'NONE', #172, #222, #49 ) ;
#14 = ORIENTED_EDGE ( 'NONE', *, *, #55, .F. ) ;
#15 = DIRECTION ( 'NONE',  ( -3.491481338843133355E-15, 1.224646799147353207E-16, -1.000000000000000000 ) ) ;
#16 = LOCAL_TIME ( 7, 15, 26.00000000000000000, #132 ) ;
#17 = DIRECTION ( 'NONE',  ( -3.491481338843133355E-15, 1.224646799147353207E-16, -1.000000000000000000 ) ) ;
#18 = CARTESIAN_POINT ( 'NONE',  ( 1.520972887970836970E-15, 0.7249999999999935385, 0.4356239487949821743 ) ) ;
#19 = AXIS2_PLACEMENT_3D ( 'NONE', #209, #127, #53 ) ;
#20 =( LENGTH_UNIT ( ) NAMED_UNIT ( * ) SI_UNIT ( .MILLI., .METRE. ) );
#21 =( NAMED_UNIT ( * ) PLANE_ANGLE_UNIT ( ) SI_UNIT ( $, .RADIAN. ) );
#22 = AXIS2_PLACEMENT_3D ( 'NONE', #2, #85, #155 ) ;
#23 = EDGE_CURVE ( 'NONE', #36, #36, #112, .T. ) ;
#24 = PERSON_AND_ORGANIZATION ( #110, #100 ) ;
#25 = DATE_AND_TIME ( #28, #212 ) ;
#26 = CC_DESIGN_PERSON_AND_ORGANIZATION_ASSIGNMENT ( #41, #44, ( #134 ) ) ;
#27 = COORDINATED_UNIVERSAL_TIME_OFFSET ( 1, 0, .AHEAD. ) ;
#28 = CALENDAR_DATE ( 2021, 8, 10 ) ;
#29 = CC_DESIGN_PERSON_AND_ORGANIZATION_ASSIGNMENT ( #46, #11, ( #9 ) ) ;
#30 = FACE_OUTER_BOUND ( 'NONE', #198, .T. ) ;
#31 = APPROVAL_PERSON_ORGANIZATION ( #78, #153, #113 ) ;
#32 = CARTESIAN_POINT ( 'NONE',  ( 3.910459099504309989E-14, -2.070057260139275459E-31, 11.20000000000000107 ) ) ;
#33 = DIRECTION ( 'NONE',  ( 4.275831445896959482E-31, 1.000000000000000000, 1.224646799147353207E-16 ) ) ;
#34 = AXIS2_PLACEMENT_3D ( 'NONE', #68, #15, #1 ) ;
#35 = APPROVAL_PERSON_ORGANIZATION ( #219, #130, #215 ) ;
#36 = VERTEX_POINT ( 'NONE', #164 ) ;
#37 = DIRECTION ( 'NONE',  ( -5.312910191413111988E-31, -1.000000000000000000, -1.495451272393812608E-16 ) ) ;
#38 = DIRECTION ( 'NONE',  ( -3.491481338843133355E-15, 1.224646799147353207E-16, -1.000000000000000000 ) ) ;
#39 = CYLINDRICAL_SURFACE ( 'NONE', #19, 0.7249999999999944267 ) ;
#40 = FACE_OUTER_BOUND ( 'NONE', #88, .T. ) ;
#41 = PERSON_AND_ORGANIZATION ( #110, #100 ) ;
#42 = CIRCLE ( 'NONE', #161, 0.7249999999999953149 ) ;
#43 = APPROVAL_PERSON_ORGANIZATION ( #143, #107, #129 ) ;
#44 = PERSON_AND_ORGANIZATION_ROLE ( 'design_owner' ) ;
#45 = CALENDAR_DATE ( 2021, 8, 10 ) ;
#46 = PERSON_AND_ORGANIZATION ( #110, #100 ) ;
#47 = EDGE_CURVE ( 'NONE', #125, #125, #8, .T. ) ;
#48 = EDGE_LOOP ( 'NONE', ( #51 ) ) ;
#49 = DIRECTION ( 'NONE',  ( 0.0000000000000000000, 1.000000000000000000, 0.0000000000000000000 ) ) ;
#50 = FACE_OUTER_BOUND ( 'NONE', #98, .T. ) ;
#51 = ORIENTED_EDGE ( 'NONE', *, *, #188, .T. ) ;
#52 = ORIENTED_EDGE ( 'NONE', *, *, #47, .T. ) ;
#53 = DIRECTION ( 'NONE',  ( 4.275831445896958607E-31, 1.000000000000000000, 1.224646799147353207E-16 ) ) ;
#54 = SECURITY_CLASSIFICATION ( '', '', #64 ) ;
#55 = EDGE_CURVE ( 'NONE', #71, #71, #135, .T. ) ;
#56 = DIRECTION ( 'NONE',  ( -4.275831445896958607E-31, -1.000000000000000000, -1.224646799147353207E-16 ) ) ;
#57 = DIRECTION ( 'NONE',  ( 3.491481338843133355E-15, -1.224646799147353207E-16, 1.000000000000000000 ) ) ;
#58 = FACE_OUTER_BOUND ( 'NONE', #83, .T. ) ;
#59 = DIRECTION ( 'NONE',  ( 4.275831445896958607E-31, 1.000000000000000000, 1.224646799147353207E-16 ) ) ;
#60 = DATE_AND_TIME ( #150, #5 ) ;
#61 = AXIS2_PLACEMENT_3D ( 'NONE', #90, #6, #37 ) ;
#62 = DIRECTION ( 'NONE',  ( 1.000000000000000000, 0.0000000000000000000, 0.0000000000000000000 ) ) ;
#63 = APPLICATION_CONTEXT ( 'configuration controlled 3d designs of mechanical parts and assemblies' ) ;
#64 = SECURITY_CLASSIFICATION_LEVEL ( 'unclassified' ) ;
#65 = LOCAL_TIME ( 7, 15, 26.00000000000000000, #27 ) ;
#66 = CC_DESIGN_APPROVAL ( #153, ( #9 ) ) ;
#67 = ADVANCED_FACE ( 'NONE', ( #117, #30 ), #126, .T. ) ;
#68 = CARTESIAN_POINT ( 'NONE',  ( 3.925577657185698773E-14, -1.376907291238660931E-15, 11.24330127018922809 ) ) ;
#69 = FACE_OUTER_BOUND ( 'NONE', #185, .T. ) ;
#70 = DIRECTION ( 'NONE',  ( -3.491481338843133355E-15, 1.224646799147353207E-16, -1.000000000000000000 ) ) ;
#71 = VERTEX_POINT ( 'NONE', #109 ) ;
#72 = CC_DESIGN_APPROVAL ( #107, ( #54 ) ) ;
#73 = PRODUCT_RELATED_PRODUCT_CATEGORY ( 'detail', '', ( #134 ) ) ;
#74 =( NAMED_UNIT ( * ) SI_UNIT ( $, .STERADIAN. ) SOLID_ANGLE_UNIT ( ) );
#75 = APPLICATION_CONTEXT ( 'configuration controlled 3d designs of mechanical parts and assemblies' ) ;
#76 = MANIFOLD_SOLID_BREP ( 'Corps-Déplacer/Copier1[1]', #171 ) ;
#77 = PERSON_AND_ORGANIZATION_ROLE ( 'creator' ) ;
#78 = PERSON_AND_ORGANIZATION ( #110, #100 ) ;
#79 = AXIS2_PLACEMENT_3D ( 'NONE', #223, #70, #200 ) ;
#80 = APPROVAL_STATUS ( 'not_yet_approved' ) ;
#81 = PERSON_AND_ORGANIZATION_ROLE ( 'classification_officer' ) ;
#82 = AXIS2_PLACEMENT_3D ( 'NONE', #174, #17, #59 ) ;
#83 = EDGE_LOOP ( 'NONE', ( #199 ) ) ;
#84 = EDGE_LOOP ( 'NONE', ( #115 ) ) ;
#85 = DIRECTION ( 'NONE',  ( -3.491481338843133355E-15, 1.224646799147353207E-16, -1.000000000000000000 ) ) ;
#86 = DIRECTION ( 'NONE',  ( 3.491481338843133355E-15, -1.224646799147353207E-16, 1.000000000000000000 ) ) ;
#87 = AXIS2_PLACEMENT_3D ( 'NONE', #92, #163, #62 ) ;
#88 = EDGE_LOOP ( 'NONE', ( #133 ) ) ;
#89 = DIRECTION ( 'NONE',  ( 0.0000000000000000000, 1.000000000000000000, 0.0000000000000000000 ) ) ;
#90 = CARTESIAN_POINT ( 'NONE',  ( 1.520972887970836576E-15, -5.334854745237052910E-17, 0.4356239487949820632 ) ) ;
#91 = CONICAL_SURFACE ( 'NONE', #216, 0.5500000000000000444, 0.7853981633974510546 ) ;
#92 = CARTESIAN_POINT ( 'NONE',  ( 0.0000000000000000000, 0.0000000000000000000, 0.0000000000000000000 ) ) ;
#93 = FACE_BOUND ( 'NONE', #170, .T. ) ;
#94 = ADVANCED_BREP_SHAPE_REPRESENTATION ( '55397', ( #76, #146, #87 ), #193 ) ;
#95 = ADVANCED_FACE ( 'NONE', ( #50 ), #157, .T. ) ;
#96 = DESIGN_CONTEXT ( 'detailed design', #75, 'design' ) ;
#97 = DATE_AND_TIME ( #128, #16 ) ;
#98 = EDGE_LOOP ( 'NONE', ( #183 ) ) ;
#99 = PRODUCT_DEFINITION_SHAPE ( 'NONE', 'NONE',  #207 ) ;
#100 = ORGANIZATION ( 'UNSPECIFIED', 'UNSPECIFIED', '' ) ;
#101 = DIRECTION ( 'NONE',  ( 0.0000000000000000000, -1.000000000000000000, 0.0000000000000000000 ) ) ;
#102 = DIRECTION ( 'NONE',  ( -4.275831445896958607E-31, -1.000000000000000000, -1.224646799147353207E-16 ) ) ;
#103 = CC_DESIGN_PERSON_AND_ORGANIZATION_ASSIGNMENT ( #24, #218, ( #9 ) ) ;
#104 = ORIENTED_EDGE ( 'NONE', *, *, #217, .F. ) ;
#105 = CARTESIAN_POINT ( 'NONE',  ( 1.047444401652940007E-13, 0.5499999999999963807, 30.00000000000000000 ) ) ;
#106 = CARTESIAN_POINT ( 'NONE',  ( 1.047444401652940007E-13, -3.673940397442059178E-15, 30.00000000000000000 ) ) ;
#107 = APPROVAL ( #180, 'UNSPECIFIED' ) ;
#108 = CONICAL_SURFACE ( 'NONE', #61, 0.7249999999999935385, 1.029744258676649649 ) ;
#109 = CARTESIAN_POINT ( 'NONE',  ( 3.925577657185698773E-14, 0.7499999999999963363, 11.24330127018922809 ) ) ;
#110 = PERSON ( 'UNSPECIFIED', 'UNSPECIFIED', 'UNSPECIFIED', ('UNSPECIFIED'), ('UNSPECIFIED'), ('UNSPECIFIED') ) ;
#111 = COORDINATED_UNIVERSAL_TIME_OFFSET ( 1, 0, .AHEAD. ) ;
#112 = CIRCLE ( 'NONE', #13, 0.7249999999999953149 ) ;
#113 = APPROVAL_ROLE ( '' ) ;
#114 = DATE_TIME_ROLE ( 'classification_date' ) ;
#115 = ORIENTED_EDGE ( 'NONE', *, *, #188, .F. ) ;
#116 = EDGE_CURVE ( 'NONE', #189, #189, #156, .T. ) ;
#117 = FACE_BOUND ( 'NONE', #84, .T. ) ;
#118 = CIRCLE ( 'NONE', #148, 0.5500000000000000444 ) ;
#119 = CARTESIAN_POINT ( 'NONE',  ( 3.925577657185698773E-14, -1.376907291238660931E-15, 11.24330127018922809 ) ) ;
#120 = EDGE_LOOP ( 'NONE', ( #104 ) ) ;
#121 = DIRECTION ( 'NONE',  ( -3.491481338843133355E-15, 1.224646799147353207E-16, -1.000000000000000000 ) ) ;
#122 = CARTESIAN_POINT ( 'NONE',  ( 1.047444401652940007E-13, -3.673940397442059178E-15, 30.00000000000000000 ) ) ;
#123 = ADVANCED_FACE ( 'NONE', ( #202, #69 ), #136, .T. ) ;
#124 = FACE_OUTER_BOUND ( 'NONE', #48, .T. ) ;
#125 = VERTEX_POINT ( 'NONE', #18 ) ;
#126 = CONICAL_SURFACE ( 'NONE', #4, 0.7499999999999977796, 0.5235987755983010361 ) ;
#127 = DIRECTION ( 'NONE',  ( -3.491481338843133355E-15, 1.224646799147353207E-16, -1.000000000000000000 ) ) ;
#128 = CALENDAR_DATE ( 2021, 8, 10 ) ;
#129 = APPROVAL_ROLE ( '' ) ;
#130 = APPROVAL ( #179, 'UNSPECIFIED' ) ;
#131 = MECHANICAL_CONTEXT ( 'NONE', #63, 'mechanical' ) ;
#132 = COORDINATED_UNIVERSAL_TIME_OFFSET ( 1, 0, .AHEAD. ) ;
#133 = ORIENTED_EDGE ( 'NONE', *, *, #23, .T. ) ;
#134 = PRODUCT ( '55397', '55397', '', ( #131 ) ) ;
#135 = CIRCLE ( 'NONE', #34, 0.7499999999999977796 ) ;
#136 = CYLINDRICAL_SURFACE ( 'NONE', #151, 0.7499999999999987788 ) ;
#137 = CARTESIAN_POINT ( 'NONE',  ( 0.0000000000000000000, 0.0000000000000000000, 0.0000000000000000000 ) ) ;
#138 = FACE_OUTER_BOUND ( 'NONE', #152, .T. ) ;
#139 = CC_DESIGN_DATE_AND_TIME_ASSIGNMENT ( #97, #114, ( #54 ) ) ;
#140 = CARTESIAN_POINT ( 'NONE',  ( 3.910459099504309989E-14, 0.7249999999999938716, 11.20000000000000107 ) ) ;
#141 = LOCAL_TIME ( 7, 15, 26.00000000000000000, #144 ) ;
#142 = CARTESIAN_POINT ( 'NONE',  ( 3.910459099504309989E-14, -1.371604415045035710E-15, 11.20000000000000107 ) ) ;
#143 = PERSON_AND_ORGANIZATION ( #110, #100 ) ;
#144 = COORDINATED_UNIVERSAL_TIME_OFFSET ( 1, 0, .AHEAD. ) ;
#145 = CC_DESIGN_DATE_AND_TIME_ASSIGNMENT ( #168, #181, ( #207 ) ) ;
#146 = MANIFOLD_SOLID_BREP ( 'Corps-Déplacer/Copier1[2]', #210 ) ;
#147 = SHAPE_DEFINITION_REPRESENTATION ( #99, #94 ) ;
#148 = AXIS2_PLACEMENT_3D ( 'NONE', #122, #175, #204 ) ;
#149 = APPROVAL_DATE_TIME ( #25, #153 ) ;
#150 = CALENDAR_DATE ( 2021, 8, 10 ) ;
#151 = AXIS2_PLACEMENT_3D ( 'NONE', #137, #121, #33 ) ;
#152 = EDGE_LOOP ( 'NONE', ( #12 ) ) ;
#153 = APPROVAL ( #80, 'UNSPECIFIED' ) ;
#154 = ORIENTED_EDGE ( 'NONE', *, *, #55, .T. ) ;
#155 = DIRECTION ( 'NONE',  ( 0.0000000000000000000, 1.000000000000000000, 0.0000000000000000000 ) ) ;
#156 = CIRCLE ( 'NONE', #22, 0.7499999999999998890 ) ;
#157 = PLANE ( 'NONE',  #165 ) ;
#158 = ADVANCED_FACE ( 'NONE', ( #206 ), #211, .F. ) ;
#159 = ORIENTED_EDGE ( 'NONE', *, *, #116, .T. ) ;
#160 = DIRECTION ( 'NONE',  ( 0.0000000000000000000, 1.000000000000000000, 0.0000000000000000000 ) ) ;
#161 = AXIS2_PLACEMENT_3D ( 'NONE', #142, #176, #89 ) ;
#162 = CARTESIAN_POINT ( 'NONE',  ( 1.040461438975253740E-13, 0.7499999999999962252, 29.80000000000000071 ) ) ;
#163 = DIRECTION ( 'NONE',  ( 0.0000000000000000000, 0.0000000000000000000, 1.000000000000000000 ) ) ;
#164 = CARTESIAN_POINT ( 'NONE',  ( 3.910459099504309989E-14, 0.7249999999999938716, 11.20000000000000107 ) ) ;
#165 = AXIS2_PLACEMENT_3D ( 'NONE', #32, #203, #102 ) ;
#166 = CC_DESIGN_APPROVAL ( #130, ( #207 ) ) ;
#167 = DATE_AND_TIME ( #45, #141 ) ;
#168 = DATE_AND_TIME ( #197, #65 ) ;
#169 = APPROVAL_DATE_TIME ( #167, #130 ) ;
#170 = EDGE_LOOP ( 'NONE', ( #187 ) ) ;
#171 = CLOSED_SHELL ( 'NONE', ( #196, #67, #123, #195, #158 ) ) ;
#172 = CARTESIAN_POINT ( 'NONE',  ( 3.910459099504309989E-14, -1.371604415045035710E-15, 11.20000000000000107 ) ) ;
#173 = EDGE_LOOP ( 'NONE', ( #52 ) ) ;
#174 = CARTESIAN_POINT ( 'NONE',  ( 1.047444401652940007E-13, 4.124339402320052999E-33, 30.00000000000000000 ) ) ;
#175 = DIRECTION ( 'NONE',  ( -3.491481338843133355E-15, 1.224646799147353207E-16, -1.000000000000000000 ) ) ;
#176 = DIRECTION ( 'NONE',  ( -3.491481338843133355E-15, 1.224646799147353207E-16, -1.000000000000000000 ) ) ;
#177 = VERTEX_POINT ( 'NONE', #105 ) ;
#178 = VERTEX_POINT ( 'NONE', #140 ) ;
#179 = APPROVAL_STATUS ( 'not_yet_approved' ) ;
#180 = APPROVAL_STATUS ( 'not_yet_approved' ) ;
#181 = DATE_TIME_ROLE ( 'creation_date' ) ;
#182 = CC_DESIGN_PERSON_AND_ORGANIZATION_ASSIGNMENT ( #213, #77, ( #207 ) ) ;
#183 = ORIENTED_EDGE ( 'NONE', *, *, #23, .F. ) ;
#184 = AXIS2_PLACEMENT_3D ( 'NONE', #3, #57, #56 ) ;
#185 = EDGE_LOOP ( 'NONE', ( #159 ) ) ;
#186 = EDGE_LOOP ( 'NONE', ( #14 ) ) ;
#187 = ORIENTED_EDGE ( 'NONE', *, *, #217, .T. ) ;
#188 = EDGE_CURVE ( 'NONE', #178, #178, #42, .T. ) ;
#189 = VERTEX_POINT ( 'NONE', #162 ) ;
#190 = FACE_OUTER_BOUND ( 'NONE', #173, .T. ) ;
#191 = ADVANCED_FACE ( 'NONE', ( #190 ), #108, .T. ) ;
#192 = APPROVAL_DATE_TIME ( #60, #107 ) ;
#193 =( GEOMETRIC_REPRESENTATION_CONTEXT ( 3 ) GLOBAL_UNCERTAINTY_ASSIGNED_CONTEXT ( ( #221 ) ) GLOBAL_UNIT_ASSIGNED_CONTEXT ( ( #20, #21, #74 ) ) REPRESENTATION_CONTEXT ( 'NONE', 'WORKASPACE' ) );
#194 = PERSON_AND_ORGANIZATION ( #110, #100 ) ;
#195 = ADVANCED_FACE ( 'NONE', ( #138, #93 ), #91, .T. ) ;
#196 = ADVANCED_FACE ( 'NONE', ( #124 ), #7, .F. ) ;
#197 = CALENDAR_DATE ( 2021, 8, 10 ) ;
#198 = EDGE_LOOP ( 'NONE', ( #154 ) ) ;
#199 = ORIENTED_EDGE ( 'NONE', *, *, #47, .F. ) ;
#200 = DIRECTION ( 'NONE',  ( 5.312910191413111988E-31, 1.000000000000000000, 1.495451272393812608E-16 ) ) ;
#201 = CC_DESIGN_PERSON_AND_ORGANIZATION_ASSIGNMENT ( #194, #81, ( #54 ) ) ;
#202 = FACE_OUTER_BOUND ( 'NONE', #186, .T. ) ;
#203 = DIRECTION ( 'NONE',  ( 3.491481338843133355E-15, -1.224646799147353207E-16, 1.000000000000000000 ) ) ;
#204 = DIRECTION ( 'NONE',  ( 0.0000000000000000000, 1.000000000000000000, 0.0000000000000000000 ) ) ;
#205 = ADVANCED_FACE ( 'NONE', ( #58, #40 ), #39, .T. ) ;
#206 = FACE_OUTER_BOUND ( 'NONE', #120, .T. ) ;
#207 = PRODUCT_DEFINITION ( 'UNKNOWN', '', #9, #96 ) ;
#208 = APPLICATION_PROTOCOL_DEFINITION ( 'international standard', 'config_control_design', 1994, #63 ) ;
#209 = CARTESIAN_POINT ( 'NONE',  ( 0.0000000000000000000, 0.0000000000000000000, 0.0000000000000000000 ) ) ;
#210 = CLOSED_SHELL ( 'NONE', ( #191, #205, #95 ) ) ;
#211 = PLANE ( 'NONE',  #82 ) ;
#212 = LOCAL_TIME ( 7, 15, 26.00000000000000000, #111 ) ;
#213 = PERSON_AND_ORGANIZATION ( #110, #100 ) ;
#214 = COORDINATED_UNIVERSAL_TIME_OFFSET ( 1, 0, .AHEAD. ) ;
#215 = APPROVAL_ROLE ( '' ) ;
#216 = AXIS2_PLACEMENT_3D ( 'NONE', #106, #38, #160 ) ;
#217 = EDGE_CURVE ( 'NONE', #177, #177, #118, .T. ) ;
#218 = PERSON_AND_ORGANIZATION_ROLE ( 'creator' ) ;
#219 = PERSON_AND_ORGANIZATION ( #110, #100 ) ;
#220 = CC_DESIGN_SECURITY_CLASSIFICATION ( #54, ( #9 ) ) ;
#221 = UNCERTAINTY_MEASURE_WITH_UNIT (LENGTH_MEASURE( 1.000000000000000082E-05 ), #20, 'distance_accuracy_value', 'NONE');
#222 = DIRECTION ( 'NONE',  ( -3.491481338843133355E-15, 1.224646799147353207E-16, -1.000000000000000000 ) ) ;
#223 = CARTESIAN_POINT ( 'NONE',  ( 1.520972887970836576E-15, -5.334854745237052910E-17, 0.4356239487949820632 ) ) ;
ENDSEC;
END-ISO-10303-21;
