ISO-10303-21;
HEADER;
FILE_DESCRIPTION (( 'STEP AP203' ),
    '1' );
FILE_NAME ('55396.step',
    '2021-10-08T05:15:25',
    ( '' ),
    ( '' ),
    'SwSTEP 2.0',
    'SolidWorks 2019',
    '' );
FILE_SCHEMA (( 'CONFIG_CONTROL_DESIGN' ));
ENDSEC;

DATA;
#1 = MANIFOLD_SOLID_BREP ( 'Corps-Déplacer/Copier1[2]', #53 ) ;
#2 = APPROVAL_PERSON_ORGANIZATION ( #205, #44, #48 ) ;
#3 = PERSON_AND_ORGANIZATION_ROLE ( 'creator' ) ;
#4 = PERSON_AND_ORGANIZATION_ROLE ( 'classification_officer' ) ;
#5 = EDGE_LOOP ( 'NONE', ( #37 ) ) ;
#6 = AXIS2_PLACEMENT_3D ( 'NONE', #30, #99, #79 ) ;
#7 = CARTESIAN_POINT ( 'NONE',  ( 3.928601368721975646E-14, -1.377967866477385581E-15, 11.25196152422707030 ) ) ;
#8 = DIRECTION ( 'NONE',  ( -4.275831445896958607E-31, -1.000000000000000000, -1.224646799147353207E-16 ) ) ;
#9 = FACE_OUTER_BOUND ( 'NONE', #92, .T. ) ;
#10 = ADVANCED_FACE ( 'NONE', ( #21, #89 ), #125, .T. ) ;
#11 = CARTESIAN_POINT ( 'NONE',  ( 3.910459099504309358E-14, 5.399135217582633061E-33, 11.19999999999999929 ) ) ;
#12 = CARTESIAN_POINT ( 'NONE',  ( 1.510483419777934490E-15, 0.7199999999999935341, 0.4326196456998443463 ) ) ;
#13 = DESIGN_CONTEXT ( 'detailed design', #87, 'design' ) ;
#14 = CALENDAR_DATE ( 2021, 8, 10 ) ;
#15 = AXIS2_PLACEMENT_3D ( 'NONE', #40, #95, #98 ) ;
#16 = DATE_AND_TIME ( #104, #88 ) ;
#17 = PERSON_AND_ORGANIZATION_ROLE ( 'design_owner' ) ;
#18 = CIRCLE ( 'NONE', #90, 0.7199999999999955325 ) ;
#19 = CONICAL_SURFACE ( 'NONE', #6, 0.7499999999999977796, 0.5235987755982910441 ) ;
#20 = CC_DESIGN_DATE_AND_TIME_ASSIGNMENT ( #16, #67, ( #26 ) ) ;
#21 = FACE_OUTER_BOUND ( 'NONE', #194, .T. ) ;
#22 = AXIS2_PLACEMENT_3D ( 'NONE', #59, #27, #126 ) ;
#23 = EDGE_LOOP ( 'NONE', ( #36 ) ) ;
#24 = EDGE_CURVE ( 'NONE', #147, #147, #18, .T. ) ;
#25 = DIRECTION ( 'NONE',  ( 0.0000000000000000000, 1.000000000000000000, 0.0000000000000000000 ) ) ;
#26 = PRODUCT_DEFINITION ( 'UNKNOWN', '', #96, #13 ) ;
#27 = DIRECTION ( 'NONE',  ( -3.491481338843133355E-15, 1.224646799147353207E-16, -1.000000000000000000 ) ) ;
#28 = DIRECTION ( 'NONE',  ( -3.491481338843133355E-15, 1.224646799147353207E-16, -1.000000000000000000 ) ) ;
#29 = AXIS2_PLACEMENT_3D ( 'NONE', #216, #111, #42 ) ;
#30 = CARTESIAN_POINT ( 'NONE',  ( 3.928601368721975646E-14, -1.377967866477385581E-15, 11.25196152422707030 ) ) ;
#31 = COORDINATED_UNIVERSAL_TIME_OFFSET ( 1, 0, .AHEAD. ) ;
#32 = COORDINATED_UNIVERSAL_TIME_OFFSET ( 1, 0, .AHEAD. ) ;
#33 =( NAMED_UNIT ( * ) PLANE_ANGLE_UNIT ( ) SI_UNIT ( $, .RADIAN. ) );
#34 = PERSON_AND_ORGANIZATION ( #171, #165 ) ;
#35 = AXIS2_PLACEMENT_3D ( 'NONE', #97, #94, #162 ) ;
#36 = ORIENTED_EDGE ( 'NONE', *, *, #64, .F. ) ;
#37 = ORIENTED_EDGE ( 'NONE', *, *, #24, .F. ) ;
#38 = SECURITY_CLASSIFICATION ( '', '', #134 ) ;
#39 = FACE_BOUND ( 'NONE', #23, .T. ) ;
#40 = CARTESIAN_POINT ( 'NONE',  ( 1.040461438975253740E-13, -3.649447461459112464E-15, 29.80000000000000071 ) ) ;
#41 = DIRECTION ( 'NONE',  ( 0.0000000000000000000, 1.000000000000000000, 0.0000000000000000000 ) ) ;
#42 = DIRECTION ( 'NONE',  ( 0.0000000000000000000, 1.000000000000000000, 0.0000000000000000000 ) ) ;
#43 = VERTEX_POINT ( 'NONE', #180 ) ;
#44 = APPROVAL ( #169, 'UNSPECIFIED' ) ;
#45 = ADVANCED_BREP_SHAPE_REPRESENTATION ( '55396', ( #142, #1, #60 ), #76 ) ;
#46 = PERSON_AND_ORGANIZATION_ROLE ( 'design_supplier' ) ;
#47 = DATE_TIME_ROLE ( 'classification_date' ) ;
#48 = APPROVAL_ROLE ( '' ) ;
#49 = PERSON_AND_ORGANIZATION ( #171, #165 ) ;
#50 = CC_DESIGN_APPROVAL ( #44, ( #96 ) ) ;
#51 = APPROVAL ( #135, 'UNSPECIFIED' ) ;
#52 = EDGE_LOOP ( 'NONE', ( #54 ) ) ;
#53 = CLOSED_SHELL ( 'NONE', ( #144, #208, #91 ) ) ;
#54 = ORIENTED_EDGE ( 'NONE', *, *, #82, .F. ) ;
#55 = ORIENTED_EDGE ( 'NONE', *, *, #24, .T. ) ;
#56 = EDGE_CURVE ( 'NONE', #43, #43, #110, .T. ) ;
#57 = CARTESIAN_POINT ( 'NONE',  ( 1.510483419777934096E-15, -5.298062643545762868E-17, 0.4326196456998442352 ) ) ;
#58 = DIRECTION ( 'NONE',  ( -3.491481338843133355E-15, 1.224646799147353207E-16, -1.000000000000000000 ) ) ;
#59 = CARTESIAN_POINT ( 'NONE',  ( 0.0000000000000000000, 0.0000000000000000000, 0.0000000000000000000 ) ) ;
#60 = AXIS2_PLACEMENT_3D ( 'NONE', #114, #202, #151 ) ;
#61 = CARTESIAN_POINT ( 'NONE',  ( 3.910459099504309358E-14, 0.7199999999999940892, 11.19999999999999929 ) ) ;
#62 = PRODUCT ( '55396', '55396', '', ( #117 ) ) ;
#63 = VERTEX_POINT ( 'NONE', #186 ) ;
#64 = EDGE_CURVE ( 'NONE', #113, #113, #154, .T. ) ;
#65 = VERTEX_POINT ( 'NONE', #223 ) ;
#66 = UNCERTAINTY_MEASURE_WITH_UNIT (LENGTH_MEASURE( 1.000000000000000082E-05 ), #133, 'distance_accuracy_value', 'NONE');
#67 = DATE_TIME_ROLE ( 'creation_date' ) ;
#68 = PERSON_AND_ORGANIZATION ( #171, #165 ) ;
#69 = CALENDAR_DATE ( 2021, 8, 10 ) ;
#70 = ORIENTED_EDGE ( 'NONE', *, *, #193, .T. ) ;
#71 = APPROVAL_ROLE ( '' ) ;
#72 = DIRECTION ( 'NONE',  ( -3.491481338843133355E-15, 1.224646799147353207E-16, -1.000000000000000000 ) ) ;
#73 = APPROVAL ( #170, 'UNSPECIFIED' ) ;
#74 = PRODUCT_DEFINITION_SHAPE ( 'NONE', 'NONE',  #26 ) ;
#75 = FACE_OUTER_BOUND ( 'NONE', #52, .T. ) ;
#76 =( GEOMETRIC_REPRESENTATION_CONTEXT ( 3 ) GLOBAL_UNCERTAINTY_ASSIGNED_CONTEXT ( ( #66 ) ) GLOBAL_UNIT_ASSIGNED_CONTEXT ( ( #133, #33, #204 ) ) REPRESENTATION_CONTEXT ( 'NONE', 'WORKASPACE' ) );
#77 = AXIS2_PLACEMENT_3D ( 'NONE', #112, #28, #109 ) ;
#78 = DIRECTION ( 'NONE',  ( 3.491481338843133355E-15, -1.224646799147353207E-16, 1.000000000000000000 ) ) ;
#79 = DIRECTION ( 'NONE',  ( 0.0000000000000000000, -1.000000000000000000, 0.0000000000000000000 ) ) ;
#80 = PLANE ( 'NONE',  #123 ) ;
#81 = DIRECTION ( 'NONE',  ( 3.491481338843133355E-15, -1.224646799147353207E-16, 1.000000000000000000 ) ) ;
#82 = EDGE_CURVE ( 'NONE', #63, #63, #139, .T. ) ;
#83 = DATE_AND_TIME ( #86, #207 ) ;
#84 = PERSON_AND_ORGANIZATION ( #171, #165 ) ;
#85 = CC_DESIGN_APPROVAL ( #73, ( #26 ) ) ;
#86 = CALENDAR_DATE ( 2021, 8, 10 ) ;
#87 = APPLICATION_CONTEXT ( 'configuration controlled 3d designs of mechanical parts and assemblies' ) ;
#88 = LOCAL_TIME ( 7, 15, 25.00000000000000000, #222 ) ;
#89 = FACE_BOUND ( 'NONE', #175, .T. ) ;
#90 = AXIS2_PLACEMENT_3D ( 'NONE', #129, #58, #41 ) ;
#91 = ADVANCED_FACE ( 'NONE', ( #182 ), #185, .T. ) ;
#92 = EDGE_LOOP ( 'NONE', ( #177 ) ) ;
#93 = CC_DESIGN_PERSON_AND_ORGANIZATION_ASSIGNMENT ( #116, #4, ( #38 ) ) ;
#94 = DIRECTION ( 'NONE',  ( 3.491481338843133355E-15, -1.224646799147353207E-16, 1.000000000000000000 ) ) ;
#95 = DIRECTION ( 'NONE',  ( -3.491481338843133355E-15, 1.224646799147353207E-16, -1.000000000000000000 ) ) ;
#96 = PRODUCT_DEFINITION_FORMATION_WITH_SPECIFIED_SOURCE ( 'ANY', '', #62, .NOT_KNOWN. ) ;
#97 = CARTESIAN_POINT ( 'NONE',  ( 1.510483419777934096E-15, -5.298062643545762868E-17, 0.4326196456998442352 ) ) ;
#98 = DIRECTION ( 'NONE',  ( 0.0000000000000000000, 1.000000000000000000, 0.0000000000000000000 ) ) ;
#99 = DIRECTION ( 'NONE',  ( 3.491481338843133355E-15, -1.224646799147353207E-16, 1.000000000000000000 ) ) ;
#100 = LOCAL_TIME ( 7, 15, 25.00000000000000000, #32 ) ;
#101 = DATE_AND_TIME ( #69, #122 ) ;
#102 = VERTEX_POINT ( 'NONE', #12 ) ;
#103 = AXIS2_PLACEMENT_3D ( 'NONE', #145, #168, #215 ) ;
#104 = CALENDAR_DATE ( 2021, 8, 10 ) ;
#105 = APPROVAL_PERSON_ORGANIZATION ( #49, #51, #71 ) ;
#106 = AXIS2_PLACEMENT_3D ( 'NONE', #167, #78, #8 ) ;
#107 = EDGE_LOOP ( 'NONE', ( #159 ) ) ;
#108 = DIRECTION ( 'NONE',  ( -3.491481338843133355E-15, 1.224646799147353207E-16, -1.000000000000000000 ) ) ;
#109 = DIRECTION ( 'NONE',  ( 4.275831445896958607E-31, 1.000000000000000000, 1.224646799147353207E-16 ) ) ;
#110 = CIRCLE ( 'NONE', #15, 0.7499999999999998890 ) ;
#111 = DIRECTION ( 'NONE',  ( -3.491481338843133355E-15, 1.224646799147353207E-16, -1.000000000000000000 ) ) ;
#112 = CARTESIAN_POINT ( 'NONE',  ( 1.047444401652940007E-13, 4.124339402320052999E-33, 30.00000000000000000 ) ) ;
#113 = VERTEX_POINT ( 'NONE', #221 ) ;
#114 = CARTESIAN_POINT ( 'NONE',  ( 0.0000000000000000000, 0.0000000000000000000, 0.0000000000000000000 ) ) ;
#115 = EDGE_CURVE ( 'NONE', #65, #65, #203, .T. ) ;
#116 = PERSON_AND_ORGANIZATION ( #171, #165 ) ;
#117 = MECHANICAL_CONTEXT ( 'NONE', #124, 'mechanical' ) ;
#118 = APPROVAL_DATE_TIME ( #83, #44 ) ;
#119 = APPLICATION_PROTOCOL_DEFINITION ( 'international standard', 'config_control_design', 1994, #87 ) ;
#120 = EDGE_LOOP ( 'NONE', ( #191 ) ) ;
#121 = ADVANCED_FACE ( 'NONE', ( #39, #9 ), #19, .T. ) ;
#122 = LOCAL_TIME ( 7, 15, 25.00000000000000000, #31 ) ;
#123 = AXIS2_PLACEMENT_3D ( 'NONE', #11, #81, #196 ) ;
#124 = APPLICATION_CONTEXT ( 'configuration controlled 3d designs of mechanical parts and assemblies' ) ;
#125 = CONICAL_SURFACE ( 'NONE', #188, 0.5500000000000000444, 0.7853981633974510546 ) ;
#126 = DIRECTION ( 'NONE',  ( 4.275831445896958607E-31, 1.000000000000000000, 1.224646799147353207E-16 ) ) ;
#127 = FACE_OUTER_BOUND ( 'NONE', #140, .T. ) ;
#128 = FACE_OUTER_BOUND ( 'NONE', #107, .T. ) ;
#129 = CARTESIAN_POINT ( 'NONE',  ( 3.910459099504309358E-14, -1.371604415045035513E-15, 11.19999999999999929 ) ) ;
#130 = CARTESIAN_POINT ( 'NONE',  ( 1.047444401652940007E-13, -3.673940397442059178E-15, 30.00000000000000000 ) ) ;
#131 = CIRCLE ( 'NONE', #176, 0.7199999999999935341 ) ;
#132 = PERSON_AND_ORGANIZATION_ROLE ( 'creator' ) ;
#133 =( LENGTH_UNIT ( ) NAMED_UNIT ( * ) SI_UNIT ( .MILLI., .METRE. ) );
#134 = SECURITY_CLASSIFICATION_LEVEL ( 'unclassified' ) ;
#135 = APPROVAL_STATUS ( 'not_yet_approved' ) ;
#136 = ORIENTED_EDGE ( 'NONE', *, *, #115, .T. ) ;
#137 = APPROVAL_PERSON_ORGANIZATION ( #84, #73, #152 ) ;
#138 = APPROVAL_DATE_TIME ( #212, #51 ) ;
#139 = CIRCLE ( 'NONE', #173, 0.7499999999999977796 ) ;
#140 = EDGE_LOOP ( 'NONE', ( #214 ) ) ;
#141 = CONICAL_SURFACE ( 'NONE', #35, 0.7199999999999935341, 1.029744258676649649 ) ;
#142 = MANIFOLD_SOLID_BREP ( 'Corps-Déplacer/Copier1[1]', #150 ) ;
#143 = CYLINDRICAL_SURFACE ( 'NONE', #103, 0.7499999999999987788 ) ;
#144 = ADVANCED_FACE ( 'NONE', ( #201 ), #141, .T. ) ;
#145 = CARTESIAN_POINT ( 'NONE',  ( 0.0000000000000000000, 0.0000000000000000000, 0.0000000000000000000 ) ) ;
#146 = FACE_OUTER_BOUND ( 'NONE', #120, .T. ) ;
#147 = VERTEX_POINT ( 'NONE', #61 ) ;
#148 = FACE_OUTER_BOUND ( 'NONE', #213, .T. ) ;
#149 = PERSON_AND_ORGANIZATION ( #171, #165 ) ;
#150 = CLOSED_SHELL ( 'NONE', ( #195, #121, #181, #10, #211 ) ) ;
#151 = DIRECTION ( 'NONE',  ( 1.000000000000000000, 0.0000000000000000000, 0.0000000000000000000 ) ) ;
#152 = APPROVAL_ROLE ( '' ) ;
#153 = PERSON_AND_ORGANIZATION ( #171, #165 ) ;
#154 = CIRCLE ( 'NONE', #29, 0.7199999999999955325 ) ;
#155 = CC_DESIGN_PERSON_AND_ORGANIZATION_ASSIGNMENT ( #149, #17, ( #62 ) ) ;
#156 = COORDINATED_UNIVERSAL_TIME_OFFSET ( 1, 0, .AHEAD. ) ;
#157 = CC_DESIGN_SECURITY_CLASSIFICATION ( #38, ( #96 ) ) ;
#158 = CARTESIAN_POINT ( 'NONE',  ( 1.047444401652940007E-13, -3.673940397442059178E-15, 30.00000000000000000 ) ) ;
#159 = ORIENTED_EDGE ( 'NONE', *, *, #115, .F. ) ;
#160 = ORIENTED_EDGE ( 'NONE', *, *, #56, .F. ) ;
#161 = EDGE_LOOP ( 'NONE', ( #190 ) ) ;
#162 = DIRECTION ( 'NONE',  ( -5.349805401075703414E-31, -1.000000000000000000, -1.505836350674325300E-16 ) ) ;
#163 = AXIS2_PLACEMENT_3D ( 'NONE', #130, #108, #179 ) ;
#164 = DIRECTION ( 'NONE',  ( -3.491481338843133355E-15, 1.224646799147353207E-16, -1.000000000000000000 ) ) ;
#165 = ORGANIZATION ( 'UNSPECIFIED', 'UNSPECIFIED', '' ) ;
#166 = DIRECTION ( 'NONE',  ( -3.491481338843133355E-15, 1.224646799147353207E-16, -1.000000000000000000 ) ) ;
#167 = CARTESIAN_POINT ( 'NONE',  ( 3.910459099504309358E-14, 5.399135217582633061E-33, 11.19999999999999929 ) ) ;
#168 = DIRECTION ( 'NONE',  ( -3.491481338843133355E-15, 1.224646799147353207E-16, -1.000000000000000000 ) ) ;
#169 = APPROVAL_STATUS ( 'not_yet_approved' ) ;
#170 = APPROVAL_STATUS ( 'not_yet_approved' ) ;
#171 = PERSON ( 'UNSPECIFIED', 'UNSPECIFIED', 'UNSPECIFIED', ('UNSPECIFIED'), ('UNSPECIFIED'), ('UNSPECIFIED') ) ;
#172 = APPLICATION_PROTOCOL_DEFINITION ( 'international standard', 'config_control_design', 1994, #124 ) ;
#173 = AXIS2_PLACEMENT_3D ( 'NONE', #7, #164, #184 ) ;
#174 = COORDINATED_UNIVERSAL_TIME_OFFSET ( 1, 0, .AHEAD. ) ;
#175 = EDGE_LOOP ( 'NONE', ( #136 ) ) ;
#176 = AXIS2_PLACEMENT_3D ( 'NONE', #57, #166, #219 ) ;
#177 = ORIENTED_EDGE ( 'NONE', *, *, #82, .T. ) ;
#178 = CC_DESIGN_PERSON_AND_ORGANIZATION_ASSIGNMENT ( #68, #3, ( #26 ) ) ;
#179 = DIRECTION ( 'NONE',  ( 0.0000000000000000000, 1.000000000000000000, 0.0000000000000000000 ) ) ;
#180 = CARTESIAN_POINT ( 'NONE',  ( 1.040461438975253740E-13, 0.7499999999999962252, 29.80000000000000071 ) ) ;
#181 = ADVANCED_FACE ( 'NONE', ( #75, #127 ), #143, .T. ) ;
#182 = FACE_OUTER_BOUND ( 'NONE', #5, .T. ) ;
#183 = CC_DESIGN_APPROVAL ( #51, ( #38 ) ) ;
#184 = DIRECTION ( 'NONE',  ( 0.0000000000000000000, 1.000000000000000000, 0.0000000000000000000 ) ) ;
#185 = PLANE ( 'NONE',  #106 ) ;
#186 = CARTESIAN_POINT ( 'NONE',  ( 3.928601368721975646E-14, 0.7499999999999963363, 11.25196152422707030 ) ) ;
#187 = APPROVAL_DATE_TIME ( #101, #73 ) ;
#188 = AXIS2_PLACEMENT_3D ( 'NONE', #158, #72, #25 ) ;
#189 = CC_DESIGN_PERSON_AND_ORGANIZATION_ASSIGNMENT ( #153, #46, ( #96 ) ) ;
#190 = ORIENTED_EDGE ( 'NONE', *, *, #64, .T. ) ;
#191 = ORIENTED_EDGE ( 'NONE', *, *, #193, .F. ) ;
#192 = SHAPE_DEFINITION_REPRESENTATION ( #74, #45 ) ;
#193 = EDGE_CURVE ( 'NONE', #102, #102, #131, .T. ) ;
#194 = EDGE_LOOP ( 'NONE', ( #160 ) ) ;
#195 = ADVANCED_FACE ( 'NONE', ( #197 ), #80, .F. ) ;
#196 = DIRECTION ( 'NONE',  ( -4.275831445896958607E-31, -1.000000000000000000, -1.224646799147353207E-16 ) ) ;
#197 = FACE_OUTER_BOUND ( 'NONE', #161, .T. ) ;
#198 = PRODUCT_RELATED_PRODUCT_CATEGORY ( 'detail', '', ( #62 ) ) ;
#199 = PLANE ( 'NONE',  #77 ) ;
#200 = CC_DESIGN_DATE_AND_TIME_ASSIGNMENT ( #206, #47, ( #38 ) ) ;
#201 = FACE_OUTER_BOUND ( 'NONE', #210, .T. ) ;
#202 = DIRECTION ( 'NONE',  ( 0.0000000000000000000, 0.0000000000000000000, 1.000000000000000000 ) ) ;
#203 = CIRCLE ( 'NONE', #163, 0.5500000000000000444 ) ;
#204 =( NAMED_UNIT ( * ) SI_UNIT ( $, .STERADIAN. ) SOLID_ANGLE_UNIT ( ) );
#205 = PERSON_AND_ORGANIZATION ( #171, #165 ) ;
#206 = DATE_AND_TIME ( #14, #100 ) ;
#207 = LOCAL_TIME ( 7, 15, 25.00000000000000000, #156 ) ;
#208 = ADVANCED_FACE ( 'NONE', ( #146, #148 ), #218, .T. ) ;
#209 = CALENDAR_DATE ( 2021, 8, 10 ) ;
#210 = EDGE_LOOP ( 'NONE', ( #70 ) ) ;
#211 = ADVANCED_FACE ( 'NONE', ( #128 ), #199, .F. ) ;
#212 = DATE_AND_TIME ( #209, #220 ) ;
#213 = EDGE_LOOP ( 'NONE', ( #55 ) ) ;
#214 = ORIENTED_EDGE ( 'NONE', *, *, #56, .T. ) ;
#215 = DIRECTION ( 'NONE',  ( 4.275831445896959482E-31, 1.000000000000000000, 1.224646799147353207E-16 ) ) ;
#216 = CARTESIAN_POINT ( 'NONE',  ( 3.910459099504309358E-14, -1.371604415045035513E-15, 11.19999999999999929 ) ) ;
#217 = CC_DESIGN_PERSON_AND_ORGANIZATION_ASSIGNMENT ( #34, #132, ( #96 ) ) ;
#218 = CYLINDRICAL_SURFACE ( 'NONE', #22, 0.7199999999999945333 ) ;
#219 = DIRECTION ( 'NONE',  ( 5.349805401075703414E-31, 1.000000000000000000, 1.505836350674325300E-16 ) ) ;
#220 = LOCAL_TIME ( 7, 15, 25.00000000000000000, #174 ) ;
#221 = CARTESIAN_POINT ( 'NONE',  ( 3.910459099504309358E-14, 0.7199999999999940892, 11.19999999999999929 ) ) ;
#222 = COORDINATED_UNIVERSAL_TIME_OFFSET ( 1, 0, .AHEAD. ) ;
#223 = CARTESIAN_POINT ( 'NONE',  ( 1.047444401652940007E-13, 0.5499999999999963807, 30.00000000000000000 ) ) ;
ENDSEC;
END-ISO-10303-21;
