ISO-10303-21;
HEADER;
FILE_DESCRIPTION (( 'STEP AP203' ),
    '1' );
FILE_NAME ('55395.step',
    '2021-10-08T05:15:24',
    ( '' ),
    ( '' ),
    'SwSTEP 2.0',
    'SolidWorks 2019',
    '' );
FILE_SCHEMA (( 'CONFIG_CONTROL_DESIGN' ));
ENDSEC;

DATA;
#1 = VERTEX_POINT ( 'NONE', #136 ) ;
#2 = CARTESIAN_POINT ( 'NONE',  ( 3.910459099504309989E-14, -1.371604415045035710E-15, 11.20000000000000107 ) ) ;
#3 = AXIS2_PLACEMENT_3D ( 'NONE', #194, #64, #120 ) ;
#4 = CC_DESIGN_PERSON_AND_ORGANIZATION_ASSIGNMENT ( #131, #124, ( #69 ) ) ;
#5 = AXIS2_PLACEMENT_3D ( 'NONE', #12, #115, #81 ) ;
#6 = CARTESIAN_POINT ( 'NONE',  ( 3.931625080258253781E-14, 0.7499999999999963363, 11.26062177826491606 ) ) ;
#7 = DIRECTION ( 'NONE',  ( 3.491481338843133355E-15, -1.224646799147353207E-16, 1.000000000000000000 ) ) ;
#8 = PERSON_AND_ORGANIZATION_ROLE ( 'classification_officer' ) ;
#9 = DATE_AND_TIME ( #196, #21 ) ;
#10 = APPROVAL_ROLE ( '' ) ;
#11 = CC_DESIGN_APPROVAL ( #144, ( #69 ) ) ;
#12 = CARTESIAN_POINT ( 'NONE',  ( 0.0000000000000000000, 0.0000000000000000000, 0.0000000000000000000 ) ) ;
#13 = EDGE_LOOP ( 'NONE', ( #30 ) ) ;
#14 = DIRECTION ( 'NONE',  ( -3.491481338843133355E-15, 1.224646799147353207E-16, -1.000000000000000000 ) ) ;
#15 = CARTESIAN_POINT ( 'NONE',  ( 3.910459099504309989E-14, -2.070807140030606448E-31, 11.20000000000000107 ) ) ;
#16 = AXIS2_PLACEMENT_3D ( 'NONE', #127, #14, #154 ) ;
#17 = AXIS2_PLACEMENT_3D ( 'NONE', #199, #34, #107 ) ;
#18 = EDGE_CURVE ( 'NONE', #178, #178, #113, .T. ) ;
#19 = APPLICATION_CONTEXT ( 'configuration controlled 3d designs of mechanical parts and assemblies' ) ;
#20 = CC_DESIGN_DATE_AND_TIME_ASSIGNMENT ( #168, #83, ( #143 ) ) ;
#21 = LOCAL_TIME ( 7, 15, 24.00000000000000000, #197 ) ;
#22 = DIRECTION ( 'NONE',  ( -3.491481338843133355E-15, 1.224646799147353207E-16, -1.000000000000000000 ) ) ;
#23 = ADVANCED_FACE ( 'NONE', ( #87 ), #157, .F. ) ;
#24 = DIRECTION ( 'NONE',  ( -3.491481338843133355E-15, 1.224646799147353207E-16, -1.000000000000000000 ) ) ;
#25 = PERSON_AND_ORGANIZATION ( #147, #152 ) ;
#26 = APPROVAL_PERSON_ORGANIZATION ( #97, #109, #28 ) ;
#27 = CARTESIAN_POINT ( 'NONE',  ( 1.499993951585031813E-15, -5.261270541854472827E-17, 0.4296153426047064072 ) ) ;
#28 = APPROVAL_ROLE ( '' ) ;
#29 = PRODUCT_DEFINITION_SHAPE ( 'NONE', 'NONE',  #43 ) ;
#30 = ORIENTED_EDGE ( 'NONE', *, *, #192, .F. ) ;
#31 = PERSON_AND_ORGANIZATION_ROLE ( 'creator' ) ;
#32 = FACE_OUTER_BOUND ( 'NONE', #187, .T. ) ;
#33 = ORIENTED_EDGE ( 'NONE', *, *, #192, .T. ) ;
#34 = DIRECTION ( 'NONE',  ( -3.491481338843133355E-15, 1.224646799147353207E-16, -1.000000000000000000 ) ) ;
#35 = CC_DESIGN_PERSON_AND_ORGANIZATION_ASSIGNMENT ( #220, #31, ( #43 ) ) ;
#36 = CC_DESIGN_PERSON_AND_ORGANIZATION_ASSIGNMENT ( #25, #119, ( #69 ) ) ;
#37 = DIRECTION ( 'NONE',  ( 4.275831445896958607E-31, 1.000000000000000000, 1.224646799147353207E-16 ) ) ;
#38 = CYLINDRICAL_SURFACE ( 'NONE', #39, 0.7149999999999946398 ) ;
#39 = AXIS2_PLACEMENT_3D ( 'NONE', #116, #155, #210 ) ;
#40 = LOCAL_TIME ( 7, 15, 24.00000000000000000, #153 ) ;
#41 = APPLICATION_CONTEXT ( 'configuration controlled 3d designs of mechanical parts and assemblies' ) ;
#42 = SECURITY_CLASSIFICATION_LEVEL ( 'unclassified' ) ;
#43 = PRODUCT_DEFINITION ( 'UNKNOWN', '', #69, #49 ) ;
#44 = COORDINATED_UNIVERSAL_TIME_OFFSET ( 1, 0, .AHEAD. ) ;
#45 = UNCERTAINTY_MEASURE_WITH_UNIT (LENGTH_MEASURE( 1.000000000000000082E-05 ), #55, 'distance_accuracy_value', 'NONE');
#46 = CIRCLE ( 'NONE', #190, 0.7149999999999935296 ) ;
#47 = DIRECTION ( 'NONE',  ( -3.491481338843133355E-15, 1.224646799147353207E-16, -1.000000000000000000 ) ) ;
#48 = PERSON_AND_ORGANIZATION ( #147, #152 ) ;
#49 = DESIGN_CONTEXT ( 'detailed design', #19, 'design' ) ;
#50 = ORIENTED_EDGE ( 'NONE', *, *, #209, .T. ) ;
#51 = DIRECTION ( 'NONE',  ( 3.491481338843133355E-15, -1.224646799147353207E-16, 1.000000000000000000 ) ) ;
#52 = CARTESIAN_POINT ( 'NONE',  ( 1.047444401652940007E-13, -3.673940397442059178E-15, 30.00000000000000000 ) ) ;
#53 = CONICAL_SURFACE ( 'NONE', #56, 0.5500000000000000444, 0.7853981633974510546 ) ;
#54 = ADVANCED_FACE ( 'NONE', ( #223, #141 ), #72, .T. ) ;
#55 =( LENGTH_UNIT ( ) NAMED_UNIT ( * ) SI_UNIT ( .MILLI., .METRE. ) );
#56 = AXIS2_PLACEMENT_3D ( 'NONE', #59, #22, #94 ) ;
#57 = PLANE ( 'NONE',  #106 ) ;
#58 = SHAPE_DEFINITION_REPRESENTATION ( #29, #182 ) ;
#59 = CARTESIAN_POINT ( 'NONE',  ( 1.047444401652940007E-13, -3.673940397442059178E-15, 30.00000000000000000 ) ) ;
#60 = MECHANICAL_CONTEXT ( 'NONE', #41, 'mechanical' ) ;
#61 = EDGE_LOOP ( 'NONE', ( #50 ) ) ;
#62 = CARTESIAN_POINT ( 'NONE',  ( 0.0000000000000000000, 0.0000000000000000000, 0.0000000000000000000 ) ) ;
#63 = CALENDAR_DATE ( 2021, 8, 10 ) ;
#64 = DIRECTION ( 'NONE',  ( -3.491481338843133355E-15, 1.224646799147353207E-16, -1.000000000000000000 ) ) ;
#65 = EDGE_LOOP ( 'NONE', ( #33 ) ) ;
#66 = PRODUCT ( '55395', '55395', '', ( #60 ) ) ;
#67 = EDGE_CURVE ( 'NONE', #174, #174, #114, .T. ) ;
#68 = APPROVAL_ROLE ( '' ) ;
#69 = PRODUCT_DEFINITION_FORMATION_WITH_SPECIFIED_SOURCE ( 'ANY', '', #66, .NOT_KNOWN. ) ;
#70 = DIRECTION ( 'NONE',  ( -4.275831445896958607E-31, -1.000000000000000000, -1.224646799147353207E-16 ) ) ;
#71 = DIRECTION ( 'NONE',  ( 3.491481338843133355E-15, -1.224646799147353207E-16, 1.000000000000000000 ) ) ;
#72 = CONICAL_SURFACE ( 'NONE', #96, 0.7499999999999977796, 0.5235987755982962621 ) ;
#73 = FACE_BOUND ( 'NONE', #215, .T. ) ;
#74 = CARTESIAN_POINT ( 'NONE',  ( 3.910459099504309989E-14, -2.070807140030606448E-31, 11.20000000000000107 ) ) ;
#75 = EDGE_CURVE ( 'NONE', #191, #191, #193, .T. ) ;
#76 = AXIS2_PLACEMENT_3D ( 'NONE', #74, #7, #206 ) ;
#77 = DIRECTION ( 'NONE',  ( -3.491481338843133355E-15, 1.224646799147353207E-16, -1.000000000000000000 ) ) ;
#78 = DATE_TIME_ROLE ( 'creation_date' ) ;
#79 = DATE_AND_TIME ( #133, #40 ) ;
#80 = AXIS2_PLACEMENT_3D ( 'NONE', #121, #51, #195 ) ;
#81 = DIRECTION ( 'NONE',  ( 1.000000000000000000, 0.0000000000000000000, 0.0000000000000000000 ) ) ;
#82 = CARTESIAN_POINT ( 'NONE',  ( 3.931625080258253781E-14, -1.379028441716110626E-15, 11.26062177826491606 ) ) ;
#83 = DATE_TIME_ROLE ( 'classification_date' ) ;
#84 = PLANE ( 'NONE',  #76 ) ;
#85 = EDGE_LOOP ( 'NONE', ( #172 ) ) ;
#86 = CC_DESIGN_APPROVAL ( #109, ( #43 ) ) ;
#87 = FACE_OUTER_BOUND ( 'NONE', #61, .T. ) ;
#88 = CC_DESIGN_PERSON_AND_ORGANIZATION_ASSIGNMENT ( #135, #198, ( #66 ) ) ;
#89 = FACE_OUTER_BOUND ( 'NONE', #65, .T. ) ;
#90 = FACE_OUTER_BOUND ( 'NONE', #85, .T. ) ;
#91 = CARTESIAN_POINT ( 'NONE',  ( 1.047444401652940007E-13, 0.5499999999999963807, 30.00000000000000000 ) ) ;
#92 = FACE_OUTER_BOUND ( 'NONE', #13, .T. ) ;
#93 = APPROVAL_PERSON_ORGANIZATION ( #167, #144, #68 ) ;
#94 = DIRECTION ( 'NONE',  ( 0.0000000000000000000, 1.000000000000000000, 0.0000000000000000000 ) ) ;
#95 = DIRECTION ( 'NONE',  ( 5.387216627656652879E-31, 1.000000000000000000, 1.516366674804915125E-16 ) ) ;
#96 = AXIS2_PLACEMENT_3D ( 'NONE', #82, #71, #218 ) ;
#97 = PERSON_AND_ORGANIZATION ( #147, #152 ) ;
#98 = APPROVAL_DATE_TIME ( #9, #109 ) ;
#99 = CONICAL_SURFACE ( 'NONE', #80, 0.7149999999999935296, 1.029744258676649649 ) ;
#100 = EDGE_LOOP ( 'NONE', ( #204 ) ) ;
#101 = DATE_AND_TIME ( #216, #205 ) ;
#102 = ADVANCED_FACE ( 'NONE', ( #160 ), #99, .T. ) ;
#103 = ORIENTED_EDGE ( 'NONE', *, *, #18, .F. ) ;
#104 = APPLICATION_PROTOCOL_DEFINITION ( 'international standard', 'config_control_design', 1994, #41 ) ;
#105 = ORIENTED_EDGE ( 'NONE', *, *, #18, .T. ) ;
#106 = AXIS2_PLACEMENT_3D ( 'NONE', #163, #77, #37 ) ;
#107 = DIRECTION ( 'NONE',  ( 0.0000000000000000000, 1.000000000000000000, 0.0000000000000000000 ) ) ;
#108 = CLOSED_SHELL ( 'NONE', ( #23, #54, #179, #129, #125 ) ) ;
#109 = APPROVAL ( #214, 'UNSPECIFIED' ) ;
#110 = LOCAL_TIME ( 7, 15, 24.00000000000000000, #118 ) ;
#111 = CARTESIAN_POINT ( 'NONE',  ( 1.040461438975253740E-13, 0.7499999999999962252, 29.80000000000000071 ) ) ;
#112 = EDGE_CURVE ( 'NONE', #1, #1, #46, .T. ) ;
#113 = CIRCLE ( 'NONE', #16, 0.7499999999999977796 ) ;
#114 = CIRCLE ( 'NONE', #140, 0.5500000000000000444 ) ;
#115 = DIRECTION ( 'NONE',  ( 0.0000000000000000000, 0.0000000000000000000, 1.000000000000000000 ) ) ;
#116 = CARTESIAN_POINT ( 'NONE',  ( 0.0000000000000000000, 0.0000000000000000000, 0.0000000000000000000 ) ) ;
#117 = DIRECTION ( 'NONE',  ( 4.275831445896959482E-31, 1.000000000000000000, 1.224646799147353207E-16 ) ) ;
#118 = COORDINATED_UNIVERSAL_TIME_OFFSET ( 1, 0, .AHEAD. ) ;
#119 = PERSON_AND_ORGANIZATION_ROLE ( 'creator' ) ;
#120 = DIRECTION ( 'NONE',  ( 0.0000000000000000000, 1.000000000000000000, 0.0000000000000000000 ) ) ;
#121 = CARTESIAN_POINT ( 'NONE',  ( 1.499993951585031813E-15, -5.261270541854472827E-17, 0.4296153426047064072 ) ) ;
#122 = CALENDAR_DATE ( 2021, 8, 10 ) ;
#123 = EDGE_LOOP ( 'NONE', ( #181 ) ) ;
#124 = PERSON_AND_ORGANIZATION_ROLE ( 'design_supplier' ) ;
#125 = ADVANCED_FACE ( 'NONE', ( #212 ), #57, .F. ) ;
#126 = ORIENTED_EDGE ( 'NONE', *, *, #67, .T. ) ;
#127 = CARTESIAN_POINT ( 'NONE',  ( 3.931625080258253781E-14, -1.379028441716110626E-15, 11.26062177826491606 ) ) ;
#128 = CC_DESIGN_DATE_AND_TIME_ASSIGNMENT ( #183, #78, ( #43 ) ) ;
#129 = ADVANCED_FACE ( 'NONE', ( #92, #73 ), #53, .T. ) ;
#130 = FACE_OUTER_BOUND ( 'NONE', #132, .T. ) ;
#131 = PERSON_AND_ORGANIZATION ( #147, #152 ) ;
#132 = EDGE_LOOP ( 'NONE', ( #103 ) ) ;
#133 = CALENDAR_DATE ( 2021, 8, 10 ) ;
#134 = PRODUCT_RELATED_PRODUCT_CATEGORY ( 'detail', '', ( #66 ) ) ;
#135 = PERSON_AND_ORGANIZATION ( #147, #152 ) ;
#136 = CARTESIAN_POINT ( 'NONE',  ( 1.499993951585032207E-15, 0.7149999999999935296, 0.4296153426047065182 ) ) ;
#137 = MANIFOLD_SOLID_BREP ( 'Corps-Déplacer/Copier1[1]', #108 ) ;
#138 = DIRECTION ( 'NONE',  ( -3.491481338843133355E-15, 1.224646799147353207E-16, -1.000000000000000000 ) ) ;
#139 = PERSON_AND_ORGANIZATION ( #147, #152 ) ;
#140 = AXIS2_PLACEMENT_3D ( 'NONE', #52, #138, #189 ) ;
#141 = FACE_OUTER_BOUND ( 'NONE', #142, .T. ) ;
#142 = EDGE_LOOP ( 'NONE', ( #105 ) ) ;
#143 = SECURITY_CLASSIFICATION ( '', '', #42 ) ;
#144 = APPROVAL ( #184, 'UNSPECIFIED' ) ;
#145 = AXIS2_PLACEMENT_3D ( 'NONE', #15, #185, #70 ) ;
#146 = DIRECTION ( 'NONE',  ( 0.0000000000000000000, 1.000000000000000000, 0.0000000000000000000 ) ) ;
#147 = PERSON ( 'UNSPECIFIED', 'UNSPECIFIED', 'UNSPECIFIED', ('UNSPECIFIED'), ('UNSPECIFIED'), ('UNSPECIFIED') ) ;
#148 = CC_DESIGN_APPROVAL ( #173, ( #143 ) ) ;
#149 = APPROVAL_DATE_TIME ( #79, #173 ) ;
#150 = APPROVAL_DATE_TIME ( #101, #144 ) ;
#151 = EDGE_LOOP ( 'NONE', ( #203 ) ) ;
#152 = ORGANIZATION ( 'UNSPECIFIED', 'UNSPECIFIED', '' ) ;
#153 = COORDINATED_UNIVERSAL_TIME_OFFSET ( 1, 0, .AHEAD. ) ;
#154 = DIRECTION ( 'NONE',  ( 0.0000000000000000000, 1.000000000000000000, 0.0000000000000000000 ) ) ;
#155 = DIRECTION ( 'NONE',  ( -3.491481338843133355E-15, 1.224646799147353207E-16, -1.000000000000000000 ) ) ;
#156 = CIRCLE ( 'NONE', #175, 0.7149999999999957501 ) ;
#157 = PLANE ( 'NONE',  #145 ) ;
#158 = CC_DESIGN_SECURITY_CLASSIFICATION ( #143, ( #69 ) ) ;
#159 = CARTESIAN_POINT ( 'NONE',  ( 3.910459099504309989E-14, 0.7149999999999943068, 11.20000000000000107 ) ) ;
#160 = FACE_OUTER_BOUND ( 'NONE', #151, .T. ) ;
#161 = APPROVAL_PERSON_ORGANIZATION ( #139, #173, #10 ) ;
#162 = CIRCLE ( 'NONE', #3, 0.7499999999999998890 ) ;
#163 = CARTESIAN_POINT ( 'NONE',  ( 1.047444401652940007E-13, 4.124339402320052999E-33, 30.00000000000000000 ) ) ;
#164 = APPROVAL_STATUS ( 'not_yet_approved' ) ;
#165 =( GEOMETRIC_REPRESENTATION_CONTEXT ( 3 ) GLOBAL_UNCERTAINTY_ASSIGNED_CONTEXT ( ( #45 ) ) GLOBAL_UNIT_ASSIGNED_CONTEXT ( ( #55, #176, #213 ) ) REPRESENTATION_CONTEXT ( 'NONE', 'WORKASPACE' ) );
#166 = CYLINDRICAL_SURFACE ( 'NONE', #200, 0.7499999999999987788 ) ;
#167 = PERSON_AND_ORGANIZATION ( #147, #152 ) ;
#168 = DATE_AND_TIME ( #63, #110 ) ;
#169 = EDGE_LOOP ( 'NONE', ( #221 ) ) ;
#170 = ORIENTED_EDGE ( 'NONE', *, *, #75, .F. ) ;
#171 = CARTESIAN_POINT ( 'NONE',  ( 3.910459099504309989E-14, 0.7149999999999943068, 11.20000000000000107 ) ) ;
#172 = ORIENTED_EDGE ( 'NONE', *, *, #112, .F. ) ;
#173 = APPROVAL ( #164, 'UNSPECIFIED' ) ;
#174 = VERTEX_POINT ( 'NONE', #91 ) ;
#175 = AXIS2_PLACEMENT_3D ( 'NONE', #2, #188, #146 ) ;
#176 =( NAMED_UNIT ( * ) PLANE_ANGLE_UNIT ( ) SI_UNIT ( $, .RADIAN. ) );
#177 = LOCAL_TIME ( 7, 15, 24.00000000000000000, #44 ) ;
#178 = VERTEX_POINT ( 'NONE', #6 ) ;
#179 = ADVANCED_FACE ( 'NONE', ( #130, #89 ), #166, .T. ) ;
#180 = COORDINATED_UNIVERSAL_TIME_OFFSET ( 1, 0, .AHEAD. ) ;
#181 = ORIENTED_EDGE ( 'NONE', *, *, #67, .F. ) ;
#182 = ADVANCED_BREP_SHAPE_REPRESENTATION ( '55395', ( #137, #207, #5 ), #165 ) ;
#183 = DATE_AND_TIME ( #122, #177 ) ;
#184 = APPROVAL_STATUS ( 'not_yet_approved' ) ;
#185 = DIRECTION ( 'NONE',  ( 3.491481338843133355E-15, -1.224646799147353207E-16, 1.000000000000000000 ) ) ;
#186 = VERTEX_POINT ( 'NONE', #111 ) ;
#187 = EDGE_LOOP ( 'NONE', ( #170 ) ) ;
#188 = DIRECTION ( 'NONE',  ( -3.491481338843133355E-15, 1.224646799147353207E-16, -1.000000000000000000 ) ) ;
#189 = DIRECTION ( 'NONE',  ( 0.0000000000000000000, 1.000000000000000000, 0.0000000000000000000 ) ) ;
#190 = AXIS2_PLACEMENT_3D ( 'NONE', #27, #24, #95 ) ;
#191 = VERTEX_POINT ( 'NONE', #171 ) ;
#192 = EDGE_CURVE ( 'NONE', #186, #186, #162, .T. ) ;
#193 = CIRCLE ( 'NONE', #17, 0.7149999999999957501 ) ;
#194 = CARTESIAN_POINT ( 'NONE',  ( 1.040461438975253740E-13, -3.649447461459112464E-15, 29.80000000000000071 ) ) ;
#195 = DIRECTION ( 'NONE',  ( -5.387216627656652879E-31, -1.000000000000000000, -1.516366674804915125E-16 ) ) ;
#196 = CALENDAR_DATE ( 2021, 8, 10 ) ;
#197 = COORDINATED_UNIVERSAL_TIME_OFFSET ( 1, 0, .AHEAD. ) ;
#198 = PERSON_AND_ORGANIZATION_ROLE ( 'design_owner' ) ;
#199 = CARTESIAN_POINT ( 'NONE',  ( 3.910459099504309989E-14, -1.371604415045035710E-15, 11.20000000000000107 ) ) ;
#200 = AXIS2_PLACEMENT_3D ( 'NONE', #62, #47, #117 ) ;
#201 = APPLICATION_PROTOCOL_DEFINITION ( 'international standard', 'config_control_design', 1994, #19 ) ;
#202 = CC_DESIGN_PERSON_AND_ORGANIZATION_ASSIGNMENT ( #48, #8, ( #143 ) ) ;
#203 = ORIENTED_EDGE ( 'NONE', *, *, #112, .T. ) ;
#204 = ORIENTED_EDGE ( 'NONE', *, *, #75, .T. ) ;
#205 = LOCAL_TIME ( 7, 15, 24.00000000000000000, #180 ) ;
#206 = DIRECTION ( 'NONE',  ( -4.275831445896958607E-31, -1.000000000000000000, -1.224646799147353207E-16 ) ) ;
#207 = MANIFOLD_SOLID_BREP ( 'Corps-Déplacer/Copier1[2]', #222 ) ;
#208 = VERTEX_POINT ( 'NONE', #159 ) ;
#209 = EDGE_CURVE ( 'NONE', #208, #208, #156, .T. ) ;
#210 = DIRECTION ( 'NONE',  ( 4.275831445896958607E-31, 1.000000000000000000, 1.224646799147353207E-16 ) ) ;
#211 = ADVANCED_FACE ( 'NONE', ( #32 ), #84, .T. ) ;
#212 = FACE_OUTER_BOUND ( 'NONE', #123, .T. ) ;
#213 =( NAMED_UNIT ( * ) SI_UNIT ( $, .STERADIAN. ) SOLID_ANGLE_UNIT ( ) );
#214 = APPROVAL_STATUS ( 'not_yet_approved' ) ;
#215 = EDGE_LOOP ( 'NONE', ( #126 ) ) ;
#216 = CALENDAR_DATE ( 2021, 8, 10 ) ;
#217 = FACE_OUTER_BOUND ( 'NONE', #100, .T. ) ;
#218 = DIRECTION ( 'NONE',  ( 0.0000000000000000000, -1.000000000000000000, 0.0000000000000000000 ) ) ;
#219 = ADVANCED_FACE ( 'NONE', ( #90, #217 ), #38, .T. ) ;
#220 = PERSON_AND_ORGANIZATION ( #147, #152 ) ;
#221 = ORIENTED_EDGE ( 'NONE', *, *, #209, .F. ) ;
#222 = CLOSED_SHELL ( 'NONE', ( #102, #219, #211 ) ) ;
#223 = FACE_BOUND ( 'NONE', #169, .T. ) ;
ENDSEC;
END-ISO-10303-21;
