ISO-10303-21;
HEADER;
FILE_DESCRIPTION (( 'STEP AP203' ),
    '1' );
FILE_NAME ('55394.step',
    '2021-10-08T05:15:24',
    ( '' ),
    ( '' ),
    'SwSTEP 2.0',
    'SolidWorks 2019',
    '' );
FILE_SCHEMA (( 'CONFIG_CONTROL_DESIGN' ));
ENDSEC;

DATA;
#1 = ADVANCED_FACE ( 'NONE', ( #152, #172 ), #219, .T. ) ;
#2 = APPLICATION_CONTEXT ( 'configuration controlled 3d designs of mechanical parts and assemblies' ) ;
#3 = CARTESIAN_POINT ( 'NONE',  ( 1.040461438975253740E-13, 0.7499999999999962252, 29.80000000000000071 ) ) ;
#4 = APPROVAL_DATE_TIME ( #28, #174 ) ;
#5 = VERTEX_POINT ( 'NONE', #126 ) ;
#6 = SECURITY_CLASSIFICATION ( '', '', #196 ) ;
#7 = APPROVAL_STATUS ( 'not_yet_approved' ) ;
#8 = ADVANCED_FACE ( 'NONE', ( #79 ), #17, .T. ) ;
#9 = CIRCLE ( 'NONE', #133, 0.7499999999999977796 ) ;
#10 = APPROVAL ( #182, 'UNSPECIFIED' ) ;
#11 = DATE_AND_TIME ( #49, #213 ) ;
#12 = UNCERTAINTY_MEASURE_WITH_UNIT (LENGTH_MEASURE( 1.000000000000000082E-05 ), #212, 'distance_accuracy_value', 'NONE');
#13 = PRODUCT ( '55394', '55394', '', ( #71 ) ) ;
#14 = EDGE_LOOP ( 'NONE', ( #221 ) ) ;
#15 = CIRCLE ( 'NONE', #168, 0.7099999999999950795 ) ;
#16 = CONICAL_SURFACE ( 'NONE', #169, 0.7099999999999935252, 1.029744258676649649 ) ;
#17 = PLANE ( 'NONE',  #157 ) ;
#18 = DIRECTION ( 'NONE',  ( 0.0000000000000000000, 1.000000000000000000, 0.0000000000000000000 ) ) ;
#19 = CC_DESIGN_PERSON_AND_ORGANIZATION_ASSIGNMENT ( #91, #125, ( #42 ) ) ;
#20 = CC_DESIGN_APPROVAL ( #174, ( #195 ) ) ;
#21 = DIRECTION ( 'NONE',  ( 4.275831445896959482E-31, 1.000000000000000000, 1.224646799147353207E-16 ) ) ;
#22 = EDGE_LOOP ( 'NONE', ( #77 ) ) ;
#23 = FACE_OUTER_BOUND ( 'NONE', #223, .T. ) ;
#24 = PERSON_AND_ORGANIZATION ( #139, #111 ) ;
#25 = CIRCLE ( 'NONE', #210, 0.7099999999999950795 ) ;
#26 = FACE_OUTER_BOUND ( 'NONE', #50, .T. ) ;
#27 = VERTEX_POINT ( 'NONE', #199 ) ;
#28 = DATE_AND_TIME ( #85, #131 ) ;
#29 = APPROVAL ( #58, 'UNSPECIFIED' ) ;
#30 = CC_DESIGN_APPROVAL ( #29, ( #42 ) ) ;
#31 = APPROVAL_DATE_TIME ( #147, #29 ) ;
#32 = DIRECTION ( 'NONE',  ( -3.491481338843133355E-15, 1.224646799147353207E-16, -1.000000000000000000 ) ) ;
#33 = APPROVAL_ROLE ( '' ) ;
#34 = DIRECTION ( 'NONE',  ( 3.491481338843133355E-15, -1.224646799147353207E-16, 1.000000000000000000 ) ) ;
#35 = COORDINATED_UNIVERSAL_TIME_OFFSET ( 1, 0, .AHEAD. ) ;
#36 = CARTESIAN_POINT ( 'NONE',  ( 1.489504483392129529E-15, -5.224478440163182169E-17, 0.4266110395095685792 ) ) ;
#37 = ORIENTED_EDGE ( 'NONE', *, *, #51, .T. ) ;
#38 = CC_DESIGN_PERSON_AND_ORGANIZATION_ASSIGNMENT ( #160, #211, ( #13 ) ) ;
#39 = DIRECTION ( 'NONE',  ( 3.491481338843133355E-15, -1.224646799147353207E-16, 1.000000000000000000 ) ) ;
#40 = EDGE_LOOP ( 'NONE', ( #52 ) ) ;
#41 = CARTESIAN_POINT ( 'NONE',  ( 3.910459099504309358E-14, 5.324147228449535527E-33, 11.19999999999999929 ) ) ;
#42 = PRODUCT_DEFINITION_FORMATION_WITH_SPECIFIED_SOURCE ( 'ANY', '', #13, .NOT_KNOWN. ) ;
#43 = PLANE ( 'NONE',  #106 ) ;
#44 = PERSON_AND_ORGANIZATION_ROLE ( 'classification_officer' ) ;
#45 = FACE_OUTER_BOUND ( 'NONE', #40, .T. ) ;
#46 = DIRECTION ( 'NONE',  ( 0.0000000000000000000, 0.0000000000000000000, 1.000000000000000000 ) ) ;
#47 = LOCAL_TIME ( 7, 15, 24.00000000000000000, #72 ) ;
#48 = CARTESIAN_POINT ( 'NONE',  ( 1.047444401652940007E-13, -3.673940397442059178E-15, 30.00000000000000000 ) ) ;
#49 = CALENDAR_DATE ( 2021, 8, 10 ) ;
#50 = EDGE_LOOP ( 'NONE', ( #98 ) ) ;
#51 = EDGE_CURVE ( 'NONE', #121, #121, #25, .T. ) ;
#52 = ORIENTED_EDGE ( 'NONE', *, *, #68, .T. ) ;
#53 = ORIENTED_EDGE ( 'NONE', *, *, #51, .F. ) ;
#54 = FACE_OUTER_BOUND ( 'NONE', #187, .T. ) ;
#55 = DIRECTION ( 'NONE',  ( 4.275831445896958607E-31, 1.000000000000000000, 1.224646799147353207E-16 ) ) ;
#56 = CLOSED_SHELL ( 'NONE', ( #83, #148, #8 ) ) ;
#57 = AXIS2_PLACEMENT_3D ( 'NONE', #81, #73, #176 ) ;
#58 = APPROVAL_STATUS ( 'not_yet_approved' ) ;
#59 = CARTESIAN_POINT ( 'NONE',  ( 1.040461438975253740E-13, -3.649447461459112464E-15, 29.80000000000000071 ) ) ;
#60 = ADVANCED_FACE ( 'NONE', ( #54 ), #207, .F. ) ;
#61 = PERSON_AND_ORGANIZATION ( #139, #111 ) ;
#62 = LOCAL_TIME ( 7, 15, 24.00000000000000000, #35 ) ;
#63 = CARTESIAN_POINT ( 'NONE',  ( 0.0000000000000000000, 0.0000000000000000000, 0.0000000000000000000 ) ) ;
#64 = PERSON_AND_ORGANIZATION ( #139, #111 ) ;
#65 = CONICAL_SURFACE ( 'NONE', #86, 0.5500000000000000444, 0.7853981633974510546 ) ;
#66 = ADVANCED_FACE ( 'NONE', ( #188 ), #43, .F. ) ;
#67 = DIRECTION ( 'NONE',  ( -4.275831445896958607E-31, -1.000000000000000000, -1.224646799147353207E-16 ) ) ;
#68 = EDGE_CURVE ( 'NONE', #113, #113, #15, .T. ) ;
#69 = VERTEX_POINT ( 'NONE', #214 ) ;
#70 = CARTESIAN_POINT ( 'NONE',  ( 0.0000000000000000000, 0.0000000000000000000, 0.0000000000000000000 ) ) ;
#71 = MECHANICAL_CONTEXT ( 'NONE', #84, 'mechanical' ) ;
#72 = COORDINATED_UNIVERSAL_TIME_OFFSET ( 1, 0, .AHEAD. ) ;
#73 = DIRECTION ( 'NONE',  ( 3.491481338843133355E-15, -1.224646799147353207E-16, 1.000000000000000000 ) ) ;
#74 = APPROVAL_ROLE ( '' ) ;
#75 = DATE_AND_TIME ( #112, #62 ) ;
#76 = PRODUCT_RELATED_PRODUCT_CATEGORY ( 'detail', '', ( #13 ) ) ;
#77 = ORIENTED_EDGE ( 'NONE', *, *, #166, .T. ) ;
#78 =( GEOMETRIC_REPRESENTATION_CONTEXT ( 3 ) GLOBAL_UNCERTAINTY_ASSIGNED_CONTEXT ( ( #12 ) ) GLOBAL_UNIT_ASSIGNED_CONTEXT ( ( #212, #104, #105 ) ) REPRESENTATION_CONTEXT ( 'NONE', 'WORKASPACE' ) );
#79 = FACE_OUTER_BOUND ( 'NONE', #14, .T. ) ;
#80 = ORIENTED_EDGE ( 'NONE', *, *, #101, .T. ) ;
#81 = CARTESIAN_POINT ( 'NONE',  ( 3.934648791794531286E-14, -1.380089016954835473E-15, 11.26928203230276182 ) ) ;
#82 = ADVANCED_BREP_SHAPE_REPRESENTATION ( '55394', ( #146, #220, #124 ), #78 ) ;
#83 = ADVANCED_FACE ( 'NONE', ( #202 ), #16, .T. ) ;
#84 = APPLICATION_CONTEXT ( 'configuration controlled 3d designs of mechanical parts and assemblies' ) ;
#85 = CALENDAR_DATE ( 2021, 8, 10 ) ;
#86 = AXIS2_PLACEMENT_3D ( 'NONE', #88, #145, #208 ) ;
#87 = APPLICATION_PROTOCOL_DEFINITION ( 'international standard', 'config_control_design', 1994, #84 ) ;
#88 = CARTESIAN_POINT ( 'NONE',  ( 1.047444401652940007E-13, -3.673940397442059178E-15, 30.00000000000000000 ) ) ;
#89 = APPROVAL_ROLE ( '' ) ;
#90 = CC_DESIGN_APPROVAL ( #10, ( #6 ) ) ;
#91 = PERSON_AND_ORGANIZATION ( #139, #111 ) ;
#92 = CC_DESIGN_PERSON_AND_ORGANIZATION_ASSIGNMENT ( #64, #130, ( #42 ) ) ;
#93 = DIRECTION ( 'NONE',  ( -3.491481338843133355E-15, 1.224646799147353207E-16, -1.000000000000000000 ) ) ;
#94 = CARTESIAN_POINT ( 'NONE',  ( 3.934648791794531286E-14, -1.380089016954835473E-15, 11.26928203230276182 ) ) ;
#95 = EDGE_LOOP ( 'NONE', ( #37 ) ) ;
#96 = PRODUCT_DEFINITION_SHAPE ( 'NONE', 'NONE',  #195 ) ;
#97 = AXIS2_PLACEMENT_3D ( 'NONE', #118, #184, #21 ) ;
#98 = ORIENTED_EDGE ( 'NONE', *, *, #166, .F. ) ;
#99 = AXIS2_PLACEMENT_3D ( 'NONE', #36, #165, #218 ) ;
#100 = APPROVAL_PERSON_ORGANIZATION ( #163, #10, #33 ) ;
#101 = EDGE_CURVE ( 'NONE', #69, #69, #194, .T. ) ;
#102 = CARTESIAN_POINT ( 'NONE',  ( 3.910459099504309358E-14, 0.7099999999999936362, 11.19999999999999929 ) ) ;
#103 = DIRECTION ( 'NONE',  ( -3.491481338843133355E-15, 1.224646799147353207E-16, -1.000000000000000000 ) ) ;
#104 =( NAMED_UNIT ( * ) PLANE_ANGLE_UNIT ( ) SI_UNIT ( $, .RADIAN. ) );
#105 =( NAMED_UNIT ( * ) SI_UNIT ( $, .STERADIAN. ) SOLID_ANGLE_UNIT ( ) );
#106 = AXIS2_PLACEMENT_3D ( 'NONE', #41, #173, #119 ) ;
#107 = PERSON_AND_ORGANIZATION ( #139, #111 ) ;
#108 = EDGE_CURVE ( 'NONE', #5, #5, #9, .T. ) ;
#109 = CC_DESIGN_SECURITY_CLASSIFICATION ( #6, ( #42 ) ) ;
#110 = SHAPE_DEFINITION_REPRESENTATION ( #96, #82 ) ;
#111 = ORGANIZATION ( 'UNSPECIFIED', 'UNSPECIFIED', '' ) ;
#112 = CALENDAR_DATE ( 2021, 8, 10 ) ;
#113 = VERTEX_POINT ( 'NONE', #102 ) ;
#114 = ORIENTED_EDGE ( 'NONE', *, *, #108, .T. ) ;
#115 = CARTESIAN_POINT ( 'NONE',  ( 3.910459099504309358E-14, 5.324147228449535527E-33, 11.19999999999999929 ) ) ;
#116 = DIRECTION ( 'NONE',  ( 0.0000000000000000000, 1.000000000000000000, 0.0000000000000000000 ) ) ;
#117 = ORIENTED_EDGE ( 'NONE', *, *, #108, .F. ) ;
#118 = CARTESIAN_POINT ( 'NONE',  ( 0.0000000000000000000, 0.0000000000000000000, 0.0000000000000000000 ) ) ;
#119 = DIRECTION ( 'NONE',  ( -4.275831445896958607E-31, -1.000000000000000000, -1.224646799147353207E-16 ) ) ;
#120 = AXIS2_PLACEMENT_3D ( 'NONE', #70, #103, #141 ) ;
#121 = VERTEX_POINT ( 'NONE', #193 ) ;
#122 = AXIS2_PLACEMENT_3D ( 'NONE', #48, #93, #116 ) ;
#123 = CYLINDRICAL_SURFACE ( 'NONE', #120, 0.7099999999999943023 ) ;
#124 = AXIS2_PLACEMENT_3D ( 'NONE', #63, #46, #177 ) ;
#125 = PERSON_AND_ORGANIZATION_ROLE ( 'design_supplier' ) ;
#126 = CARTESIAN_POINT ( 'NONE',  ( 3.934648791794531286E-14, 0.7499999999999963363, 11.26928203230276182 ) ) ;
#127 = PERSON_AND_ORGANIZATION ( #139, #111 ) ;
#128 = FACE_BOUND ( 'NONE', #155, .T. ) ;
#129 = EDGE_CURVE ( 'NONE', #27, #27, #201, .T. ) ;
#130 = PERSON_AND_ORGANIZATION_ROLE ( 'creator' ) ;
#131 = LOCAL_TIME ( 7, 15, 24.00000000000000000, #149 ) ;
#132 = EDGE_LOOP ( 'NONE', ( #117 ) ) ;
#133 = AXIS2_PLACEMENT_3D ( 'NONE', #94, #32, #162 ) ;
#134 = CC_DESIGN_DATE_AND_TIME_ASSIGNMENT ( #181, #197, ( #195 ) ) ;
#135 = EDGE_LOOP ( 'NONE', ( #170 ) ) ;
#136 = CARTESIAN_POINT ( 'NONE',  ( 3.910459099504309358E-14, -1.371604415045035513E-15, 11.19999999999999929 ) ) ;
#137 = DIRECTION ( 'NONE',  ( 0.0000000000000000000, 1.000000000000000000, 0.0000000000000000000 ) ) ;
#138 = FACE_BOUND ( 'NONE', #190, .T. ) ;
#139 = PERSON ( 'UNSPECIFIED', 'UNSPECIFIED', 'UNSPECIFIED', ('UNSPECIFIED'), ('UNSPECIFIED'), ('UNSPECIFIED') ) ;
#140 = CALENDAR_DATE ( 2021, 8, 10 ) ;
#141 = DIRECTION ( 'NONE',  ( 4.275831445896958607E-31, 1.000000000000000000, 1.224646799147352961E-16 ) ) ;
#142 = CONICAL_SURFACE ( 'NONE', #57, 0.7499999999999977796, 0.5235987755982879355 ) ;
#143 = COORDINATED_UNIVERSAL_TIME_OFFSET ( 1, 0, .AHEAD. ) ;
#144 = DIRECTION ( 'NONE',  ( -3.491481338843133355E-15, 1.224646799147353207E-16, -1.000000000000000000 ) ) ;
#145 = DIRECTION ( 'NONE',  ( -3.491481338843133355E-15, 1.224646799147353207E-16, -1.000000000000000000 ) ) ;
#146 = MANIFOLD_SOLID_BREP ( 'Corps-Déplacer/Copier1[1]', #179 ) ;
#147 = DATE_AND_TIME ( #161, #180 ) ;
#148 = ADVANCED_FACE ( 'NONE', ( #203, #45 ), #123, .T. ) ;
#149 = COORDINATED_UNIVERSAL_TIME_OFFSET ( 1, 0, .AHEAD. ) ;
#150 = AXIS2_PLACEMENT_3D ( 'NONE', #222, #206, #55 ) ;
#151 = DATE_TIME_ROLE ( 'classification_date' ) ;
#152 = FACE_OUTER_BOUND ( 'NONE', #132, .T. ) ;
#153 = CC_DESIGN_PERSON_AND_ORGANIZATION_ASSIGNMENT ( #127, #215, ( #195 ) ) ;
#154 = CIRCLE ( 'NONE', #159, 0.7499999999999998890 ) ;
#155 = EDGE_LOOP ( 'NONE', ( #53 ) ) ;
#156 = ORIENTED_EDGE ( 'NONE', *, *, #101, .F. ) ;
#157 = AXIS2_PLACEMENT_3D ( 'NONE', #115, #39, #67 ) ;
#158 = COORDINATED_UNIVERSAL_TIME_OFFSET ( 1, 0, .AHEAD. ) ;
#159 = AXIS2_PLACEMENT_3D ( 'NONE', #59, #144, #198 ) ;
#160 = PERSON_AND_ORGANIZATION ( #139, #111 ) ;
#161 = CALENDAR_DATE ( 2021, 8, 10 ) ;
#162 = DIRECTION ( 'NONE',  ( 0.0000000000000000000, 1.000000000000000000, 0.0000000000000000000 ) ) ;
#163 = PERSON_AND_ORGANIZATION ( #139, #111 ) ;
#164 = DESIGN_CONTEXT ( 'detailed design', #2, 'design' ) ;
#165 = DIRECTION ( 'NONE',  ( -3.491481338843133355E-15, 1.224646799147353207E-16, -1.000000000000000000 ) ) ;
#166 = EDGE_CURVE ( 'NONE', #175, #175, #154, .T. ) ;
#167 = ORIENTED_EDGE ( 'NONE', *, *, #129, .F. ) ;
#168 = AXIS2_PLACEMENT_3D ( 'NONE', #192, #191, #137 ) ;
#169 = AXIS2_PLACEMENT_3D ( 'NONE', #183, #34, #204 ) ;
#170 = ORIENTED_EDGE ( 'NONE', *, *, #129, .T. ) ;
#171 = APPROVAL_PERSON_ORGANIZATION ( #107, #174, #89 ) ;
#172 = FACE_OUTER_BOUND ( 'NONE', #22, .T. ) ;
#173 = DIRECTION ( 'NONE',  ( 3.491481338843133355E-15, -1.224646799147353207E-16, 1.000000000000000000 ) ) ;
#174 = APPROVAL ( #7, 'UNSPECIFIED' ) ;
#175 = VERTEX_POINT ( 'NONE', #3 ) ;
#176 = DIRECTION ( 'NONE',  ( 0.0000000000000000000, -1.000000000000000000, 0.0000000000000000000 ) ) ;
#177 = DIRECTION ( 'NONE',  ( 1.000000000000000000, 0.0000000000000000000, 0.0000000000000000000 ) ) ;
#178 = APPLICATION_PROTOCOL_DEFINITION ( 'international standard', 'config_control_design', 1994, #2 ) ;
#179 = CLOSED_SHELL ( 'NONE', ( #66, #185, #1, #216, #60 ) ) ;
#180 = LOCAL_TIME ( 7, 15, 24.00000000000000000, #143 ) ;
#181 = DATE_AND_TIME ( #140, #47 ) ;
#182 = APPROVAL_STATUS ( 'not_yet_approved' ) ;
#183 = CARTESIAN_POINT ( 'NONE',  ( 1.489504483392129529E-15, -5.224478440163182169E-17, 0.4266110395095685792 ) ) ;
#184 = DIRECTION ( 'NONE',  ( -3.491481338843133355E-15, 1.224646799147353207E-16, -1.000000000000000000 ) ) ;
#185 = ADVANCED_FACE ( 'NONE', ( #128, #23 ), #142, .T. ) ;
#186 = EDGE_LOOP ( 'NONE', ( #167 ) ) ;
#187 = EDGE_LOOP ( 'NONE', ( #156 ) ) ;
#188 = FACE_OUTER_BOUND ( 'NONE', #95, .T. ) ;
#189 = APPROVAL_PERSON_ORGANIZATION ( #24, #29, #74 ) ;
#190 = EDGE_LOOP ( 'NONE', ( #80 ) ) ;
#191 = DIRECTION ( 'NONE',  ( -3.491481338843133355E-15, 1.224646799147353207E-16, -1.000000000000000000 ) ) ;
#192 = CARTESIAN_POINT ( 'NONE',  ( 3.910459099504309358E-14, -1.371604415045035513E-15, 11.19999999999999929 ) ) ;
#193 = CARTESIAN_POINT ( 'NONE',  ( 3.910459099504309358E-14, 0.7099999999999936362, 11.19999999999999929 ) ) ;
#194 = CIRCLE ( 'NONE', #122, 0.5500000000000000444 ) ;
#195 = PRODUCT_DEFINITION ( 'UNKNOWN', '', #42, #164 ) ;
#196 = SECURITY_CLASSIFICATION_LEVEL ( 'unclassified' ) ;
#197 = DATE_TIME_ROLE ( 'creation_date' ) ;
#198 = DIRECTION ( 'NONE',  ( 0.0000000000000000000, 1.000000000000000000, 0.0000000000000000000 ) ) ;
#199 = CARTESIAN_POINT ( 'NONE',  ( 1.489504483392129727E-15, 0.7099999999999935252, 0.4266110395095686902 ) ) ;
#200 = CC_DESIGN_DATE_AND_TIME_ASSIGNMENT ( #11, #151, ( #6 ) ) ;
#201 = CIRCLE ( 'NONE', #99, 0.7099999999999935252 ) ;
#202 = FACE_OUTER_BOUND ( 'NONE', #135, .T. ) ;
#203 = FACE_OUTER_BOUND ( 'NONE', #186, .T. ) ;
#204 = DIRECTION ( 'NONE',  ( -5.425154772921840452E-31, -1.000000000000000000, -1.527045313359879281E-16 ) ) ;
#205 = DIRECTION ( 'NONE',  ( -3.491481338843133355E-15, 1.224646799147353207E-16, -1.000000000000000000 ) ) ;
#206 = DIRECTION ( 'NONE',  ( -3.491481338843133355E-15, 1.224646799147353207E-16, -1.000000000000000000 ) ) ;
#207 = PLANE ( 'NONE',  #150 ) ;
#208 = DIRECTION ( 'NONE',  ( 0.0000000000000000000, 1.000000000000000000, 0.0000000000000000000 ) ) ;
#209 = CC_DESIGN_PERSON_AND_ORGANIZATION_ASSIGNMENT ( #61, #44, ( #6 ) ) ;
#210 = AXIS2_PLACEMENT_3D ( 'NONE', #136, #205, #18 ) ;
#211 = PERSON_AND_ORGANIZATION_ROLE ( 'design_owner' ) ;
#212 =( LENGTH_UNIT ( ) NAMED_UNIT ( * ) SI_UNIT ( .MILLI., .METRE. ) );
#213 = LOCAL_TIME ( 7, 15, 24.00000000000000000, #158 ) ;
#214 = CARTESIAN_POINT ( 'NONE',  ( 1.047444401652940007E-13, 0.5499999999999963807, 30.00000000000000000 ) ) ;
#215 = PERSON_AND_ORGANIZATION_ROLE ( 'creator' ) ;
#216 = ADVANCED_FACE ( 'NONE', ( #26, #138 ), #65, .T. ) ;
#217 = APPROVAL_DATE_TIME ( #75, #10 ) ;
#218 = DIRECTION ( 'NONE',  ( 5.425154772921840452E-31, 1.000000000000000000, 1.527045313359879281E-16 ) ) ;
#219 = CYLINDRICAL_SURFACE ( 'NONE', #97, 0.7499999999999987788 ) ;
#220 = MANIFOLD_SOLID_BREP ( 'Corps-Déplacer/Copier1[2]', #56 ) ;
#221 = ORIENTED_EDGE ( 'NONE', *, *, #68, .F. ) ;
#222 = CARTESIAN_POINT ( 'NONE',  ( 1.047444401652940007E-13, 4.124339402320052999E-33, 30.00000000000000000 ) ) ;
#223 = EDGE_LOOP ( 'NONE', ( #114 ) ) ;
ENDSEC;
END-ISO-10303-21;
