ISO-10303-21;
HEADER;
FILE_DESCRIPTION (( 'STEP AP203' ),
    '1' );
FILE_NAME ('55393.step',
    '2021-10-08T05:15:23',
    ( '' ),
    ( '' ),
    'SwSTEP 2.0',
    'SolidWorks 2019',
    '' );
FILE_SCHEMA (( 'CONFIG_CONTROL_DESIGN' ));
ENDSEC;

DATA;
#1 = ADVANCED_FACE ( 'NONE', ( #32, #31 ), #53, .T. ) ;
#2 = CARTESIAN_POINT ( 'NONE',  ( 3.910459099504309358E-14, 5.286653233882984024E-33, 11.19999999999999929 ) ) ;
#3 = CARTESIAN_POINT ( 'NONE',  ( 3.937672503330808159E-14, -1.381149592193560320E-15, 11.27794228634060403 ) ) ;
#4 = CLOSED_SHELL ( 'NONE', ( #120, #179, #1, #139, #153 ) ) ;
#5 = DATE_AND_TIME ( #27, #26 ) ;
#6 = PERSON_AND_ORGANIZATION_ROLE ( 'design_owner' ) ;
#7 = CC_DESIGN_PERSON_AND_ORGANIZATION_ASSIGNMENT ( #212, #73, ( #90 ) ) ;
#8 = COORDINATED_UNIVERSAL_TIME_OFFSET ( 1, 0, .AHEAD. ) ;
#9 = CIRCLE ( 'NONE', #151, 0.7499999999999998890 ) ;
#10 = PERSON_AND_ORGANIZATION_ROLE ( 'creator' ) ;
#11 = PERSON_AND_ORGANIZATION ( #196, #29 ) ;
#12 = APPROVAL_DATE_TIME ( #161, #112 ) ;
#13 = CC_DESIGN_SECURITY_CLASSIFICATION ( #35, ( #90 ) ) ;
#14 = ORIENTED_EDGE ( 'NONE', *, *, #158, .F. ) ;
#15 = PERSON_AND_ORGANIZATION ( #196, #29 ) ;
#16 = CIRCLE ( 'NONE', #190, 0.7499999999999977796 ) ;
#17 = CC_DESIGN_PERSON_AND_ORGANIZATION_ASSIGNMENT ( #78, #183, ( #35 ) ) ;
#18 = ORIENTED_EDGE ( 'NONE', *, *, #214, .T. ) ;
#19 = CARTESIAN_POINT ( 'NONE',  ( 1.047444401652940007E-13, -3.673940397442059178E-15, 30.00000000000000000 ) ) ;
#20 = DIRECTION ( 'NONE',  ( 0.0000000000000000000, 1.000000000000000000, 0.0000000000000000000 ) ) ;
#21 = CLOSED_SHELL ( 'NONE', ( #194, #94, #63 ) ) ;
#22 = DIRECTION ( 'NONE',  ( 0.0000000000000000000, 1.000000000000000000, 0.0000000000000000000 ) ) ;
#23 = PLANE ( 'NONE',  #85 ) ;
#24 = PLANE ( 'NONE',  #116 ) ;
#25 = APPROVAL_ROLE ( '' ) ;
#26 = LOCAL_TIME ( 7, 15, 23.00000000000000000, #143 ) ;
#27 = CALENDAR_DATE ( 2021, 8, 10 ) ;
#28 = APPROVAL ( #107, 'UNSPECIFIED' ) ;
#29 = ORGANIZATION ( 'UNSPECIFIED', 'UNSPECIFIED', '' ) ;
#30 = ORIENTED_EDGE ( 'NONE', *, *, #133, .F. ) ;
#31 = FACE_OUTER_BOUND ( 'NONE', #200, .T. ) ;
#32 = FACE_OUTER_BOUND ( 'NONE', #64, .T. ) ;
#33 = PRODUCT_DEFINITION_SHAPE ( 'NONE', 'NONE',  #79 ) ;
#34 = FACE_OUTER_BOUND ( 'NONE', #171, .T. ) ;
#35 = SECURITY_CLASSIFICATION ( '', '', #164 ) ;
#36 = FACE_OUTER_BOUND ( 'NONE', #145, .T. ) ;
#37 = ORIENTED_EDGE ( 'NONE', *, *, #108, .F. ) ;
#38 = EDGE_CURVE ( 'NONE', #121, #121, #202, .T. ) ;
#39 = CALENDAR_DATE ( 2021, 8, 10 ) ;
#40 = DIRECTION ( 'NONE',  ( 1.000000000000000000, 0.0000000000000000000, 0.0000000000000000000 ) ) ;
#41 =( NAMED_UNIT ( * ) SI_UNIT ( $, .STERADIAN. ) SOLID_ANGLE_UNIT ( ) );
#42 = AXIS2_PLACEMENT_3D ( 'NONE', #209, #189, #132 ) ;
#43 = CC_DESIGN_PERSON_AND_ORGANIZATION_ASSIGNMENT ( #11, #10, ( #79 ) ) ;
#44 = ORIENTED_EDGE ( 'NONE', *, *, #214, .F. ) ;
#45 = AXIS2_PLACEMENT_3D ( 'NONE', #114, #131, #20 ) ;
#46 = PERSON_AND_ORGANIZATION ( #196, #29 ) ;
#47 = EDGE_LOOP ( 'NONE', ( #54 ) ) ;
#48 = EDGE_LOOP ( 'NONE', ( #14 ) ) ;
#49 = DIRECTION ( 'NONE',  ( -3.491481338843133355E-15, 1.224646799147353207E-16, -1.000000000000000000 ) ) ;
#50 = CARTESIAN_POINT ( 'NONE',  ( 0.0000000000000000000, 0.0000000000000000000, 0.0000000000000000000 ) ) ;
#51 = CC_DESIGN_PERSON_AND_ORGANIZATION_ASSIGNMENT ( #46, #195, ( #90 ) ) ;
#52 = DIRECTION ( 'NONE',  ( -3.491481338843133355E-15, 1.224646799147353207E-16, -1.000000000000000000 ) ) ;
#53 = CYLINDRICAL_SURFACE ( 'NONE', #42, 0.7499999999999987788 ) ;
#54 = ORIENTED_EDGE ( 'NONE', *, *, #206, .T. ) ;
#55 = CC_DESIGN_DATE_AND_TIME_ASSIGNMENT ( #76, #106, ( #79 ) ) ;
#56 = COORDINATED_UNIVERSAL_TIME_OFFSET ( 1, 0, .AHEAD. ) ;
#57 = MECHANICAL_CONTEXT ( 'NONE', #77, 'mechanical' ) ;
#58 = AXIS2_PLACEMENT_3D ( 'NONE', #97, #49, #100 ) ;
#59 = MANIFOLD_SOLID_BREP ( 'Corps-Déplacer/Copier1[1]', #4 ) ;
#60 = PERSON_AND_ORGANIZATION ( #196, #29 ) ;
#61 = CARTESIAN_POINT ( 'NONE',  ( 3.910459099504309358E-14, 0.7049999999999929656, 11.19999999999999929 ) ) ;
#62 = CARTESIAN_POINT ( 'NONE',  ( 0.0000000000000000000, 0.0000000000000000000, 0.0000000000000000000 ) ) ;
#63 = ADVANCED_FACE ( 'NONE', ( #98 ), #172, .T. ) ;
#64 = EDGE_LOOP ( 'NONE', ( #30 ) ) ;
#65 = FACE_OUTER_BOUND ( 'NONE', #166, .T. ) ;
#66 = EDGE_LOOP ( 'NONE', ( #44 ) ) ;
#67 = LOCAL_TIME ( 7, 15, 23.00000000000000000, #8 ) ;
#68 = DESIGN_CONTEXT ( 'detailed design', #101, 'design' ) ;
#69 = DIRECTION ( 'NONE',  ( 3.491481338843133355E-15, -1.224646799147353207E-16, 1.000000000000000000 ) ) ;
#70 = DIRECTION ( 'NONE',  ( -3.491481338843133355E-15, 1.224646799147353207E-16, -1.000000000000000000 ) ) ;
#71 = ORIENTED_EDGE ( 'NONE', *, *, #38, .F. ) ;
#72 = CONICAL_SURFACE ( 'NONE', #93, 0.7049999999999935207, 1.029744258676649649 ) ;
#73 = PERSON_AND_ORGANIZATION_ROLE ( 'creator' ) ;
#74 = DATE_AND_TIME ( #39, #67 ) ;
#75 = CALENDAR_DATE ( 2021, 8, 10 ) ;
#76 = DATE_AND_TIME ( #75, #150 ) ;
#77 = APPLICATION_CONTEXT ( 'configuration controlled 3d designs of mechanical parts and assemblies' ) ;
#78 = PERSON_AND_ORGANIZATION ( #196, #29 ) ;
#79 = PRODUCT_DEFINITION ( 'UNKNOWN', '', #90, #68 ) ;
#80 = CC_DESIGN_APPROVAL ( #112, ( #35 ) ) ;
#81 = FACE_OUTER_BOUND ( 'NONE', #199, .T. ) ;
#82 = FACE_OUTER_BOUND ( 'NONE', #47, .T. ) ;
#83 = DIRECTION ( 'NONE',  ( 3.491481338843133355E-15, -1.224646799147353207E-16, 1.000000000000000000 ) ) ;
#84 = DIRECTION ( 'NONE',  ( 5.463631047907102291E-31, 1.000000000000000000, 1.537875421965268654E-16 ) ) ;
#85 = AXIS2_PLACEMENT_3D ( 'NONE', #2, #83, #103 ) ;
#86 = PERSON_AND_ORGANIZATION ( #196, #29 ) ;
#87 = DIRECTION ( 'NONE',  ( 0.0000000000000000000, 0.0000000000000000000, 1.000000000000000000 ) ) ;
#88 = PRODUCT_RELATED_PRODUCT_CATEGORY ( 'detail', '', ( #204 ) ) ;
#89 = VERTEX_POINT ( 'NONE', #61 ) ;
#90 = PRODUCT_DEFINITION_FORMATION_WITH_SPECIFIED_SOURCE ( 'ANY', '', #204, .NOT_KNOWN. ) ;
#91 = APPROVAL_ROLE ( '' ) ;
#92 = CARTESIAN_POINT ( 'NONE',  ( 3.910459099504309358E-14, 0.7049999999999929656, 11.19999999999999929 ) ) ;
#93 = AXIS2_PLACEMENT_3D ( 'NONE', #167, #69, #205 ) ;
#94 = ADVANCED_FACE ( 'NONE', ( #36, #82 ), #135, .T. ) ;
#95 = CIRCLE ( 'NONE', #193, 0.7049999999999944089 ) ;
#96 = CC_DESIGN_PERSON_AND_ORGANIZATION_ASSIGNMENT ( #86, #6, ( #204 ) ) ;
#97 = CARTESIAN_POINT ( 'NONE',  ( 3.910459099504309358E-14, -1.371604415045035513E-15, 11.19999999999999929 ) ) ;
#98 = FACE_OUTER_BOUND ( 'NONE', #186, .T. ) ;
#99 = AXIS2_PLACEMENT_3D ( 'NONE', #137, #149, #156 ) ;
#100 = DIRECTION ( 'NONE',  ( 0.0000000000000000000, 1.000000000000000000, 0.0000000000000000000 ) ) ;
#101 = APPLICATION_CONTEXT ( 'configuration controlled 3d designs of mechanical parts and assemblies' ) ;
#102 = FACE_BOUND ( 'NONE', #216, .T. ) ;
#103 = DIRECTION ( 'NONE',  ( -4.275831445896958607E-31, -1.000000000000000000, -1.224646799147353207E-16 ) ) ;
#104 = APPROVAL_PERSON_ORGANIZATION ( #60, #197, #91 ) ;
#105 = CARTESIAN_POINT ( 'NONE',  ( 1.047444401652940007E-13, 0.5499999999999963807, 30.00000000000000000 ) ) ;
#106 = DATE_TIME_ROLE ( 'creation_date' ) ;
#107 = APPROVAL_STATUS ( 'not_yet_approved' ) ;
#108 = EDGE_CURVE ( 'NONE', #213, #213, #125, .T. ) ;
#109 = CARTESIAN_POINT ( 'NONE',  ( 3.937672503330808159E-14, 0.7499999999999963363, 11.27794228634060403 ) ) ;
#110 = SHAPE_DEFINITION_REPRESENTATION ( #33, #208 ) ;
#111 = EDGE_LOOP ( 'NONE', ( #219 ) ) ;
#112 = APPROVAL ( #163, 'UNSPECIFIED' ) ;
#113 = FACE_OUTER_BOUND ( 'NONE', #111, .T. ) ;
#114 = CARTESIAN_POINT ( 'NONE',  ( 1.047444401652940007E-13, -3.673940397442059178E-15, 30.00000000000000000 ) ) ;
#115 = DIRECTION ( 'NONE',  ( 0.0000000000000000000, 1.000000000000000000, 0.0000000000000000000 ) ) ;
#116 = AXIS2_PLACEMENT_3D ( 'NONE', #152, #201, #207 ) ;
#117 = DIRECTION ( 'NONE',  ( -3.491481338843133355E-15, 1.224646799147353207E-16, -1.000000000000000000 ) ) ;
#118 = DIRECTION ( 'NONE',  ( 0.0000000000000000000, -1.000000000000000000, 0.0000000000000000000 ) ) ;
#119 = DIRECTION ( 'NONE',  ( 0.0000000000000000000, 1.000000000000000000, 0.0000000000000000000 ) ) ;
#120 = ADVANCED_FACE ( 'NONE', ( #81 ), #23, .F. ) ;
#121 = VERTEX_POINT ( 'NONE', #159 ) ;
#122 = CONICAL_SURFACE ( 'NONE', #45, 0.5500000000000000444, 0.7853981633974510546 ) ;
#123 =( NAMED_UNIT ( * ) PLANE_ANGLE_UNIT ( ) SI_UNIT ( $, .RADIAN. ) );
#124 = CARTESIAN_POINT ( 'NONE',  ( 1.040461438975253740E-13, 0.7499999999999962252, 29.80000000000000071 ) ) ;
#125 = CIRCLE ( 'NONE', #173, 0.5500000000000000444 ) ;
#126 = CALENDAR_DATE ( 2021, 8, 10 ) ;
#127 = COORDINATED_UNIVERSAL_TIME_OFFSET ( 1, 0, .AHEAD. ) ;
#128 = CC_DESIGN_DATE_AND_TIME_ASSIGNMENT ( #198, #160, ( #35 ) ) ;
#129 = AXIS2_PLACEMENT_3D ( 'NONE', #62, #87, #40 ) ;
#130 = MANIFOLD_SOLID_BREP ( 'Corps-Déplacer/Copier1[2]', #21 ) ;
#131 = DIRECTION ( 'NONE',  ( -3.491481338843133355E-15, 1.224646799147353207E-16, -1.000000000000000000 ) ) ;
#132 = DIRECTION ( 'NONE',  ( 4.275831445896959482E-31, 1.000000000000000000, 1.224646799147353207E-16 ) ) ;
#133 = EDGE_CURVE ( 'NONE', #140, #140, #16, .T. ) ;
#134 = DIRECTION ( 'NONE',  ( -3.491481338843133355E-15, 1.224646799147353207E-16, -1.000000000000000000 ) ) ;
#135 = CYLINDRICAL_SURFACE ( 'NONE', #136, 0.7049999999999939648 ) ;
#136 = AXIS2_PLACEMENT_3D ( 'NONE', #50, #168, #154 ) ;
#137 = CARTESIAN_POINT ( 'NONE',  ( 3.910459099504309358E-14, 5.286653233882984024E-33, 11.19999999999999929 ) ) ;
#138 = APPROVAL_DATE_TIME ( #5, #28 ) ;
#139 = ADVANCED_FACE ( 'NONE', ( #187, #102 ), #122, .T. ) ;
#140 = VERTEX_POINT ( 'NONE', #109 ) ;
#141 = APPROVAL_DATE_TIME ( #74, #197 ) ;
#142 = AXIS2_PLACEMENT_3D ( 'NONE', #203, #117, #84 ) ;
#143 = COORDINATED_UNIVERSAL_TIME_OFFSET ( 1, 0, .AHEAD. ) ;
#144 = COORDINATED_UNIVERSAL_TIME_OFFSET ( 1, 0, .AHEAD. ) ;
#145 = EDGE_LOOP ( 'NONE', ( #71 ) ) ;
#146 = CALENDAR_DATE ( 2021, 8, 10 ) ;
#147 = ORIENTED_EDGE ( 'NONE', *, *, #206, .F. ) ;
#148 = APPROVAL_PERSON_ORGANIZATION ( #15, #112, #180 ) ;
#149 = DIRECTION ( 'NONE',  ( 3.491481338843133355E-15, -1.224646799147353207E-16, 1.000000000000000000 ) ) ;
#150 = LOCAL_TIME ( 7, 15, 23.00000000000000000, #56 ) ;
#151 = AXIS2_PLACEMENT_3D ( 'NONE', #210, #192, #119 ) ;
#152 = CARTESIAN_POINT ( 'NONE',  ( 1.047444401652940007E-13, 4.124339402320052999E-33, 30.00000000000000000 ) ) ;
#153 = ADVANCED_FACE ( 'NONE', ( #65 ), #24, .F. ) ;
#154 = DIRECTION ( 'NONE',  ( 4.275831445896958607E-31, 1.000000000000000000, 1.224646799147353207E-16 ) ) ;
#155 = FACE_BOUND ( 'NONE', #48, .T. ) ;
#156 = DIRECTION ( 'NONE',  ( -4.275831445896958607E-31, -1.000000000000000000, -1.224646799147353207E-16 ) ) ;
#157 = APPLICATION_PROTOCOL_DEFINITION ( 'international standard', 'config_control_design', 1994, #101 ) ;
#158 = EDGE_CURVE ( 'NONE', #211, #211, #165, .T. ) ;
#159 = CARTESIAN_POINT ( 'NONE',  ( 1.479015015199227246E-15, 0.7049999999999935207, 0.4236067364144308067 ) ) ;
#160 = DATE_TIME_ROLE ( 'classification_date' ) ;
#161 = DATE_AND_TIME ( #126, #177 ) ;
#162 = LOCAL_TIME ( 7, 15, 23.00000000000000000, #127 ) ;
#163 = APPROVAL_STATUS ( 'not_yet_approved' ) ;
#164 = SECURITY_CLASSIFICATION_LEVEL ( 'unclassified' ) ;
#165 = CIRCLE ( 'NONE', #58, 0.7049999999999944089 ) ;
#166 = EDGE_LOOP ( 'NONE', ( #37 ) ) ;
#167 = CARTESIAN_POINT ( 'NONE',  ( 1.479015015199226852E-15, -5.187686338471891512E-17, 0.4236067364144306957 ) ) ;
#168 = DIRECTION ( 'NONE',  ( -3.491481338843133355E-15, 1.224646799147353207E-16, -1.000000000000000000 ) ) ;
#169 = CONICAL_SURFACE ( 'NONE', #218, 0.7499999999999977796, 0.5235987755983007030 ) ;
#170 = CARTESIAN_POINT ( 'NONE',  ( 3.910459099504309358E-14, -1.371604415045035513E-15, 11.19999999999999929 ) ) ;
#171 = EDGE_LOOP ( 'NONE', ( #217 ) ) ;
#172 = PLANE ( 'NONE',  #99 ) ;
#173 = AXIS2_PLACEMENT_3D ( 'NONE', #19, #134, #221 ) ;
#174 = VERTEX_POINT ( 'NONE', #124 ) ;
#175 = PERSON_AND_ORGANIZATION ( #196, #29 ) ;
#176 =( LENGTH_UNIT ( ) NAMED_UNIT ( * ) SI_UNIT ( .MILLI., .METRE. ) );
#177 = LOCAL_TIME ( 7, 15, 23.00000000000000000, #144 ) ;
#178 = APPLICATION_PROTOCOL_DEFINITION ( 'international standard', 'config_control_design', 1994, #77 ) ;
#179 = ADVANCED_FACE ( 'NONE', ( #155, #34 ), #169, .T. ) ;
#180 = APPROVAL_ROLE ( '' ) ;
#181 = ORIENTED_EDGE ( 'NONE', *, *, #158, .T. ) ;
#182 = ORIENTED_EDGE ( 'NONE', *, *, #108, .T. ) ;
#183 = PERSON_AND_ORGANIZATION_ROLE ( 'classification_officer' ) ;
#184 = CC_DESIGN_APPROVAL ( #197, ( #79 ) ) ;
#185 = CARTESIAN_POINT ( 'NONE',  ( 3.937672503330808159E-14, -1.381149592193560320E-15, 11.27794228634060403 ) ) ;
#186 = EDGE_LOOP ( 'NONE', ( #147 ) ) ;
#187 = FACE_OUTER_BOUND ( 'NONE', #66, .T. ) ;
#188 =( GEOMETRIC_REPRESENTATION_CONTEXT ( 3 ) GLOBAL_UNCERTAINTY_ASSIGNED_CONTEXT ( ( #220 ) ) GLOBAL_UNIT_ASSIGNED_CONTEXT ( ( #176, #123, #41 ) ) REPRESENTATION_CONTEXT ( 'NONE', 'WORKASPACE' ) );
#189 = DIRECTION ( 'NONE',  ( -3.491481338843133355E-15, 1.224646799147353207E-16, -1.000000000000000000 ) ) ;
#190 = AXIS2_PLACEMENT_3D ( 'NONE', #185, #70, #22 ) ;
#191 = APPROVAL_STATUS ( 'not_yet_approved' ) ;
#192 = DIRECTION ( 'NONE',  ( -3.491481338843133355E-15, 1.224646799147353207E-16, -1.000000000000000000 ) ) ;
#193 = AXIS2_PLACEMENT_3D ( 'NONE', #170, #52, #115 ) ;
#194 = ADVANCED_FACE ( 'NONE', ( #113 ), #72, .T. ) ;
#195 = PERSON_AND_ORGANIZATION_ROLE ( 'design_supplier' ) ;
#196 = PERSON ( 'UNSPECIFIED', 'UNSPECIFIED', 'UNSPECIFIED', ('UNSPECIFIED'), ('UNSPECIFIED'), ('UNSPECIFIED') ) ;
#197 = APPROVAL ( #191, 'UNSPECIFIED' ) ;
#198 = DATE_AND_TIME ( #146, #162 ) ;
#199 = EDGE_LOOP ( 'NONE', ( #181 ) ) ;
#200 = EDGE_LOOP ( 'NONE', ( #18 ) ) ;
#201 = DIRECTION ( 'NONE',  ( -3.491481338843133355E-15, 1.224646799147353207E-16, -1.000000000000000000 ) ) ;
#202 = CIRCLE ( 'NONE', #142, 0.7049999999999935207 ) ;
#203 = CARTESIAN_POINT ( 'NONE',  ( 1.479015015199226852E-15, -5.187686338471891512E-17, 0.4236067364144306957 ) ) ;
#204 = PRODUCT ( '55393', '55393', '', ( #57 ) ) ;
#205 = DIRECTION ( 'NONE',  ( -5.463631047907102291E-31, -1.000000000000000000, -1.537875421965268654E-16 ) ) ;
#206 = EDGE_CURVE ( 'NONE', #89, #89, #95, .T. ) ;
#207 = DIRECTION ( 'NONE',  ( 4.275831445896958607E-31, 1.000000000000000000, 1.224646799147353207E-16 ) ) ;
#208 = ADVANCED_BREP_SHAPE_REPRESENTATION ( '55393', ( #59, #130, #129 ), #188 ) ;
#209 = CARTESIAN_POINT ( 'NONE',  ( 0.0000000000000000000, 0.0000000000000000000, 0.0000000000000000000 ) ) ;
#210 = CARTESIAN_POINT ( 'NONE',  ( 1.040461438975253740E-13, -3.649447461459112464E-15, 29.80000000000000071 ) ) ;
#211 = VERTEX_POINT ( 'NONE', #92 ) ;
#212 = PERSON_AND_ORGANIZATION ( #196, #29 ) ;
#213 = VERTEX_POINT ( 'NONE', #105 ) ;
#214 = EDGE_CURVE ( 'NONE', #174, #174, #9, .T. ) ;
#215 = CC_DESIGN_APPROVAL ( #28, ( #90 ) ) ;
#216 = EDGE_LOOP ( 'NONE', ( #182 ) ) ;
#217 = ORIENTED_EDGE ( 'NONE', *, *, #133, .T. ) ;
#218 = AXIS2_PLACEMENT_3D ( 'NONE', #3, #223, #118 ) ;
#219 = ORIENTED_EDGE ( 'NONE', *, *, #38, .T. ) ;
#220 = UNCERTAINTY_MEASURE_WITH_UNIT (LENGTH_MEASURE( 1.000000000000000082E-05 ), #176, 'distance_accuracy_value', 'NONE');
#221 = DIRECTION ( 'NONE',  ( 0.0000000000000000000, 1.000000000000000000, 0.0000000000000000000 ) ) ;
#222 = APPROVAL_PERSON_ORGANIZATION ( #175, #28, #25 ) ;
#223 = DIRECTION ( 'NONE',  ( 3.491481338843133355E-15, -1.224646799147353207E-16, 1.000000000000000000 ) ) ;
ENDSEC;
END-ISO-10303-21;
