ISO-10303-21;
HEADER;
FILE_DESCRIPTION (( 'STEP AP203' ),
    '1' );
FILE_NAME ('55392.step',
    '2021-10-08T05:15:22',
    ( '' ),
    ( '' ),
    'SwSTEP 2.0',
    'SolidWorks 2019',
    '' );
FILE_SCHEMA (( 'CONFIG_CONTROL_DESIGN' ));
ENDSEC;

DATA;
#1 = CC_DESIGN_PERSON_AND_ORGANIZATION_ASSIGNMENT ( #73, #56, ( #184 ) ) ;
#2 = CARTESIAN_POINT ( 'NONE',  ( 1.468525547006335218E-15, -5.150894236780639065E-17, 0.4206024333192959763 ) ) ;
#3 = COORDINATED_UNIVERSAL_TIME_OFFSET ( 1, 0, .AHEAD. ) ;
#4 = EDGE_LOOP ( 'NONE', ( #23 ) ) ;
#5 = DIRECTION ( 'NONE',  ( 4.275831445896958607E-31, 1.000000000000000000, 1.224646799147353207E-16 ) ) ;
#6 = APPROVAL ( #89, 'UNSPECIFIED' ) ;
#7 = LOCAL_TIME ( 7, 15, 22.00000000000000000, #129 ) ;
#8 = EDGE_LOOP ( 'NONE', ( #101 ) ) ;
#9 = ORIENTED_EDGE ( 'NONE', *, *, #207, .T. ) ;
#10 = DIRECTION ( 'NONE',  ( 0.0000000000000000000, 1.000000000000000000, 0.0000000000000000000 ) ) ;
#11 = FACE_OUTER_BOUND ( 'NONE', #64, .T. ) ;
#12 = CARTESIAN_POINT ( 'NONE',  ( 0.0000000000000000000, 0.0000000000000000000, 0.0000000000000000000 ) ) ;
#13 = CLOSED_SHELL ( 'NONE', ( #117, #203, #41 ) ) ;
#14 = CYLINDRICAL_SURFACE ( 'NONE', #16, 0.7499999999999987788 ) ;
#15 = PERSON_AND_ORGANIZATION_ROLE ( 'design_supplier' ) ;
#16 = AXIS2_PLACEMENT_3D ( 'NONE', #204, #66, #65 ) ;
#17 = COORDINATED_UNIVERSAL_TIME_OFFSET ( 1, 0, .AHEAD. ) ;
#18 = DIRECTION ( 'NONE',  ( 0.0000000000000000000, 1.000000000000000000, 0.0000000000000000000 ) ) ;
#19 = PERSON_AND_ORGANIZATION_ROLE ( 'creator' ) ;
#20 = CARTESIAN_POINT ( 'NONE',  ( 3.940696214867083139E-14, -1.382210167432284378E-15, 11.28660254037844091 ) ) ;
#21 = PERSON_AND_ORGANIZATION ( #222, #193 ) ;
#22 = AXIS2_PLACEMENT_3D ( 'NONE', #155, #32, #170 ) ;
#23 = ORIENTED_EDGE ( 'NONE', *, *, #187, .T. ) ;
#24 = APPROVAL ( #95, 'UNSPECIFIED' ) ;
#25 = AXIS2_PLACEMENT_3D ( 'NONE', #141, #205, #50 ) ;
#26 = EDGE_LOOP ( 'NONE', ( #159 ) ) ;
#27 = FACE_OUTER_BOUND ( 'NONE', #185, .T. ) ;
#28 = CONICAL_SURFACE ( 'NONE', #115, 0.7499999999999977796, 0.5235987755982930425 ) ;
#29 = CONICAL_SURFACE ( 'NONE', #61, 0.5500000000000000444, 0.7853981633974510546 ) ;
#30 = DIRECTION ( 'NONE',  ( -3.491481338843133355E-15, 1.224646799147353207E-16, -1.000000000000000000 ) ) ;
#31 =( NAMED_UNIT ( * ) SI_UNIT ( $, .STERADIAN. ) SOLID_ANGLE_UNIT ( ) );
#32 = DIRECTION ( 'NONE',  ( -3.491481338843133355E-15, 1.224646799147353207E-16, -1.000000000000000000 ) ) ;
#33 = APPROVAL_ROLE ( '' ) ;
#34 = COORDINATED_UNIVERSAL_TIME_OFFSET ( 1, 0, .AHEAD. ) ;
#35 = DATE_AND_TIME ( #38, #191 ) ;
#36 = CIRCLE ( 'NONE', #206, 0.6999999999999997335 ) ;
#37 = DIRECTION ( 'NONE',  ( 3.491481338843133355E-15, -1.224646799147353207E-16, 1.000000000000000000 ) ) ;
#38 = CALENDAR_DATE ( 2021, 8, 10 ) ;
#39 = PLANE ( 'NONE',  #154 ) ;
#40 = EDGE_CURVE ( 'NONE', #88, #88, #215, .T. ) ;
#41 = ADVANCED_FACE ( 'NONE', ( #194 ), #39, .T. ) ;
#42 = LOCAL_TIME ( 7, 15, 22.00000000000000000, #34 ) ;
#43 = PLANE ( 'NONE',  #139 ) ;
#44 = PERSON_AND_ORGANIZATION ( #222, #193 ) ;
#45 =( GEOMETRIC_REPRESENTATION_CONTEXT ( 3 ) GLOBAL_UNCERTAINTY_ASSIGNED_CONTEXT ( ( #157 ) ) GLOBAL_UNIT_ASSIGNED_CONTEXT ( ( #123, #122, #31 ) ) REPRESENTATION_CONTEXT ( 'NONE', 'WORKASPACE' ) );
#46 = CARTESIAN_POINT ( 'NONE',  ( 3.940696214867083139E-14, 0.7499999999999963363, 11.28660254037844091 ) ) ;
#47 = CARTESIAN_POINT ( 'NONE',  ( 1.047444401652940007E-13, -3.673940397442059178E-15, 30.00000000000000000 ) ) ;
#48 = CC_DESIGN_DATE_AND_TIME_ASSIGNMENT ( #143, #54, ( #84 ) ) ;
#49 = DESIGN_CONTEXT ( 'detailed design', #74, 'design' ) ;
#50 = DIRECTION ( 'NONE',  ( 1.000000000000000000, 0.0000000000000000000, 0.0000000000000000000 ) ) ;
#51 = APPROVAL_DATE_TIME ( #35, #24 ) ;
#52 = APPROVAL_STATUS ( 'not_yet_approved' ) ;
#53 = CC_DESIGN_PERSON_AND_ORGANIZATION_ASSIGNMENT ( #44, #223, ( #90 ) ) ;
#54 = DATE_TIME_ROLE ( 'creation_date' ) ;
#55 = ADVANCED_BREP_SHAPE_REPRESENTATION ( '55392', ( #57, #136, #25 ), #45 ) ;
#56 = PERSON_AND_ORGANIZATION_ROLE ( 'classification_officer' ) ;
#57 = MANIFOLD_SOLID_BREP ( 'Corps-Déplacer/Copier1[1]', #109 ) ;
#58 = FACE_BOUND ( 'NONE', #135, .T. ) ;
#59 = EDGE_LOOP ( 'NONE', ( #120 ) ) ;
#60 = DIRECTION ( 'NONE',  ( 3.491481338843133355E-15, -1.224646799147353207E-16, 1.000000000000000000 ) ) ;
#61 = AXIS2_PLACEMENT_3D ( 'NONE', #145, #213, #10 ) ;
#62 = APPLICATION_CONTEXT ( 'configuration controlled 3d designs of mechanical parts and assemblies' ) ;
#63 = ORIENTED_EDGE ( 'NONE', *, *, #207, .F. ) ;
#64 = EDGE_LOOP ( 'NONE', ( #116 ) ) ;
#65 = DIRECTION ( 'NONE',  ( 4.275831445896959482E-31, 1.000000000000000000, 1.224646799147353207E-16 ) ) ;
#66 = DIRECTION ( 'NONE',  ( -3.491481338843133355E-15, 1.224646799147353207E-16, -1.000000000000000000 ) ) ;
#67 = CIRCLE ( 'NONE', #211, 0.7499999999999977796 ) ;
#68 = VERTEX_POINT ( 'NONE', #46 ) ;
#69 = PLANE ( 'NONE',  #125 ) ;
#70 = SECURITY_CLASSIFICATION_LEVEL ( 'unclassified' ) ;
#71 = APPROVAL_ROLE ( '' ) ;
#72 = EDGE_CURVE ( 'NONE', #137, #137, #36, .T. ) ;
#73 = PERSON_AND_ORGANIZATION ( #222, #193 ) ;
#74 = APPLICATION_CONTEXT ( 'configuration controlled 3d designs of mechanical parts and assemblies' ) ;
#75 = DIRECTION ( 'NONE',  ( -5.502656983963541894E-31, -1.000000000000000000, -1.548860246407866541E-16 ) ) ;
#76 = APPROVAL_DATE_TIME ( #198, #6 ) ;
#77 = CC_DESIGN_APPROVAL ( #6, ( #184 ) ) ;
#78 = FACE_BOUND ( 'NONE', #217, .T. ) ;
#79 = CC_DESIGN_APPROVAL ( #24, ( #84 ) ) ;
#80 = DIRECTION ( 'NONE',  ( -3.491481338843133355E-15, 1.224646799147353207E-16, -1.000000000000000000 ) ) ;
#81 = CARTESIAN_POINT ( 'NONE',  ( 3.910459099504309358E-14, 5.249159239316479048E-33, 11.19999999999999929 ) ) ;
#82 = FACE_OUTER_BOUND ( 'NONE', #4, .T. ) ;
#83 = CARTESIAN_POINT ( 'NONE',  ( 3.910459099504309358E-14, 5.249159239316479048E-33, 11.19999999999999929 ) ) ;
#84 = PRODUCT_DEFINITION ( 'UNKNOWN', '', #86, #49 ) ;
#85 = CARTESIAN_POINT ( 'NONE',  ( 3.910459099504309358E-14, 0.6999999999999984013, 11.19999999999999929 ) ) ;
#86 = PRODUCT_DEFINITION_FORMATION_WITH_SPECIFIED_SOURCE ( 'ANY', '', #90, .NOT_KNOWN. ) ;
#87 = DIRECTION ( 'NONE',  ( -4.275831445896958607E-31, -1.000000000000000000, -1.224646799147353207E-16 ) ) ;
#88 = VERTEX_POINT ( 'NONE', #121 ) ;
#89 = APPROVAL_STATUS ( 'not_yet_approved' ) ;
#90 = PRODUCT ( '55392', '55392', '', ( #107 ) ) ;
#91 = FACE_OUTER_BOUND ( 'NONE', #150, .T. ) ;
#92 = ADVANCED_FACE ( 'NONE', ( #167 ), #43, .F. ) ;
#93 = APPROVAL_DATE_TIME ( #180, #108 ) ;
#94 = DIRECTION ( 'NONE',  ( 0.0000000000000000000, -1.000000000000000000, 0.0000000000000000000 ) ) ;
#95 = APPROVAL_STATUS ( 'not_yet_approved' ) ;
#96 = APPROVAL_PERSON_ORGANIZATION ( #160, #6, #33 ) ;
#97 = CARTESIAN_POINT ( 'NONE',  ( 3.910459099504309358E-14, -1.371604415045035513E-15, 11.19999999999999929 ) ) ;
#98 = LOCAL_TIME ( 7, 15, 22.00000000000000000, #17 ) ;
#99 = CARTESIAN_POINT ( 'NONE',  ( 1.468525547006335218E-15, -5.150894236780639065E-17, 0.4206024333192959763 ) ) ;
#100 = EDGE_CURVE ( 'NONE', #124, #124, #169, .T. ) ;
#101 = ORIENTED_EDGE ( 'NONE', *, *, #100, .F. ) ;
#102 = DIRECTION ( 'NONE',  ( 3.491481338843133355E-15, -1.224646799147353207E-16, 1.000000000000000000 ) ) ;
#103 = CC_DESIGN_APPROVAL ( #108, ( #86 ) ) ;
#104 = DIRECTION ( 'NONE',  ( 4.275831445896957731E-31, 1.000000000000000000, 1.224646799147352961E-16 ) ) ;
#105 = PRODUCT_RELATED_PRODUCT_CATEGORY ( 'detail', '', ( #90 ) ) ;
#106 = AXIS2_PLACEMENT_3D ( 'NONE', #130, #186, #18 ) ;
#107 = MECHANICAL_CONTEXT ( 'NONE', #62, 'mechanical' ) ;
#108 = APPROVAL ( #52, 'UNSPECIFIED' ) ;
#109 = CLOSED_SHELL ( 'NONE', ( #189, #133, #221, #149, #92 ) ) ;
#110 = CC_DESIGN_DATE_AND_TIME_ASSIGNMENT ( #192, #127, ( #184 ) ) ;
#111 = DIRECTION ( 'NONE',  ( 0.0000000000000000000, 1.000000000000000000, 0.0000000000000000000 ) ) ;
#112 = CALENDAR_DATE ( 2021, 8, 10 ) ;
#113 = ORIENTED_EDGE ( 'NONE', *, *, #40, .F. ) ;
#114 = CALENDAR_DATE ( 2021, 8, 10 ) ;
#115 = AXIS2_PLACEMENT_3D ( 'NONE', #20, #60, #94 ) ;
#116 = ORIENTED_EDGE ( 'NONE', *, *, #72, .T. ) ;
#117 = ADVANCED_FACE ( 'NONE', ( #91 ), #152, .T. ) ;
#118 = PRODUCT_DEFINITION_SHAPE ( 'NONE', 'NONE',  #84 ) ;
#119 = APPROVAL_PERSON_ORGANIZATION ( #208, #108, #164 ) ;
#120 = ORIENTED_EDGE ( 'NONE', *, *, #196, .F. ) ;
#121 = CARTESIAN_POINT ( 'NONE',  ( 1.468525547006335613E-15, 0.6999999999999986233, 0.4206024333192960873 ) ) ;
#122 =( NAMED_UNIT ( * ) PLANE_ANGLE_UNIT ( ) SI_UNIT ( $, .RADIAN. ) );
#123 =( LENGTH_UNIT ( ) NAMED_UNIT ( * ) SI_UNIT ( .MILLI., .METRE. ) );
#124 = VERTEX_POINT ( 'NONE', #220 ) ;
#125 = AXIS2_PLACEMENT_3D ( 'NONE', #83, #102, #87 ) ;
#126 = CALENDAR_DATE ( 2021, 8, 10 ) ;
#127 = DATE_TIME_ROLE ( 'classification_date' ) ;
#128 = CIRCLE ( 'NONE', #162, 0.5500000000000000444 ) ;
#129 = COORDINATED_UNIVERSAL_TIME_OFFSET ( 1, 0, .AHEAD. ) ;
#130 = CARTESIAN_POINT ( 'NONE',  ( 1.040461438975253740E-13, -3.649447461459112464E-15, 29.80000000000000071 ) ) ;
#131 = PERSON_AND_ORGANIZATION ( #222, #193 ) ;
#132 = DIRECTION ( 'NONE',  ( 5.502656983963541894E-31, 1.000000000000000000, 1.548860246407866541E-16 ) ) ;
#133 = ADVANCED_FACE ( 'NONE', ( #58, #197 ), #28, .T. ) ;
#134 = AXIS2_PLACEMENT_3D ( 'NONE', #2, #212, #75 ) ;
#135 = EDGE_LOOP ( 'NONE', ( #201 ) ) ;
#136 = MANIFOLD_SOLID_BREP ( 'Corps-Déplacer/Copier1[2]', #13 ) ;
#137 = VERTEX_POINT ( 'NONE', #156 ) ;
#138 = CARTESIAN_POINT ( 'NONE',  ( 1.047444401652940007E-13, 0.5499999999999963807, 30.00000000000000000 ) ) ;
#139 = AXIS2_PLACEMENT_3D ( 'NONE', #166, #80, #5 ) ;
#140 = DIRECTION ( 'NONE',  ( -3.491481338843133355E-15, 1.224646799147353207E-16, -1.000000000000000000 ) ) ;
#141 = CARTESIAN_POINT ( 'NONE',  ( 0.0000000000000000000, 0.0000000000000000000, 0.0000000000000000000 ) ) ;
#142 = AXIS2_PLACEMENT_3D ( 'NONE', #99, #183, #132 ) ;
#143 = DATE_AND_TIME ( #158, #98 ) ;
#144 = ORIENTED_EDGE ( 'NONE', *, *, #196, .T. ) ;
#145 = CARTESIAN_POINT ( 'NONE',  ( 1.047444401652940007E-13, -3.673940397442059178E-15, 30.00000000000000000 ) ) ;
#146 = CC_DESIGN_PERSON_AND_ORGANIZATION_ASSIGNMENT ( #21, #210, ( #84 ) ) ;
#147 = EDGE_LOOP ( 'NONE', ( #113 ) ) ;
#148 = AXIS2_PLACEMENT_3D ( 'NONE', #12, #202, #104 ) ;
#149 = ADVANCED_FACE ( 'NONE', ( #161, #78 ), #29, .T. ) ;
#150 = EDGE_LOOP ( 'NONE', ( #214 ) ) ;
#151 = ORIENTED_EDGE ( 'NONE', *, *, #100, .T. ) ;
#152 = CONICAL_SURFACE ( 'NONE', #134, 0.6999999999999986233, 1.029744258676649649 ) ;
#153 = VERTEX_POINT ( 'NONE', #138 ) ;
#154 = AXIS2_PLACEMENT_3D ( 'NONE', #81, #37, #179 ) ;
#155 = CARTESIAN_POINT ( 'NONE',  ( 3.910459099504309358E-14, -1.371604415045035513E-15, 11.19999999999999929 ) ) ;
#156 = CARTESIAN_POINT ( 'NONE',  ( 3.910459099504309358E-14, 0.6999999999999984013, 11.19999999999999929 ) ) ;
#157 = UNCERTAINTY_MEASURE_WITH_UNIT (LENGTH_MEASURE( 1.000000000000000082E-05 ), #123, 'distance_accuracy_value', 'NONE');
#158 = CALENDAR_DATE ( 2021, 8, 10 ) ;
#159 = ORIENTED_EDGE ( 'NONE', *, *, #187, .F. ) ;
#160 = PERSON_AND_ORGANIZATION ( #222, #193 ) ;
#161 = FACE_OUTER_BOUND ( 'NONE', #8, .T. ) ;
#162 = AXIS2_PLACEMENT_3D ( 'NONE', #47, #140, #175 ) ;
#163 = CC_DESIGN_PERSON_AND_ORGANIZATION_ASSIGNMENT ( #131, #19, ( #86 ) ) ;
#164 = APPROVAL_ROLE ( '' ) ;
#165 = CIRCLE ( 'NONE', #22, 0.6999999999999997335 ) ;
#166 = CARTESIAN_POINT ( 'NONE',  ( 1.047444401652940007E-13, 4.124339402320052999E-33, 30.00000000000000000 ) ) ;
#167 = FACE_OUTER_BOUND ( 'NONE', #59, .T. ) ;
#168 = VERTEX_POINT ( 'NONE', #85 ) ;
#169 = CIRCLE ( 'NONE', #106, 0.7499999999999998890 ) ;
#170 = DIRECTION ( 'NONE',  ( 0.0000000000000000000, 1.000000000000000000, 0.0000000000000000000 ) ) ;
#171 = FACE_OUTER_BOUND ( 'NONE', #147, .T. ) ;
#172 = CC_DESIGN_PERSON_AND_ORGANIZATION_ASSIGNMENT ( #177, #15, ( #86 ) ) ;
#173 = FACE_OUTER_BOUND ( 'NONE', #199, .T. ) ;
#174 = LOCAL_TIME ( 7, 15, 22.00000000000000000, #3 ) ;
#175 = DIRECTION ( 'NONE',  ( 0.0000000000000000000, 1.000000000000000000, 0.0000000000000000000 ) ) ;
#176 = SHAPE_DEFINITION_REPRESENTATION ( #118, #55 ) ;
#177 = PERSON_AND_ORGANIZATION ( #222, #193 ) ;
#178 = APPROVAL_PERSON_ORGANIZATION ( #209, #24, #71 ) ;
#179 = DIRECTION ( 'NONE',  ( -4.275831445896958607E-31, -1.000000000000000000, -1.224646799147353207E-16 ) ) ;
#180 = DATE_AND_TIME ( #126, #42 ) ;
#181 = DIRECTION ( 'NONE',  ( -3.491481338843133355E-15, 1.224646799147353207E-16, -1.000000000000000000 ) ) ;
#182 = COORDINATED_UNIVERSAL_TIME_OFFSET ( 1, 0, .AHEAD. ) ;
#183 = DIRECTION ( 'NONE',  ( -3.491481338843133355E-15, 1.224646799147353207E-16, -1.000000000000000000 ) ) ;
#184 = SECURITY_CLASSIFICATION ( '', '', #70 ) ;
#185 = EDGE_LOOP ( 'NONE', ( #151 ) ) ;
#186 = DIRECTION ( 'NONE',  ( -3.491481338843133355E-15, 1.224646799147353207E-16, -1.000000000000000000 ) ) ;
#187 = EDGE_CURVE ( 'NONE', #168, #168, #165, .T. ) ;
#188 = CARTESIAN_POINT ( 'NONE',  ( 3.940696214867083139E-14, -1.382210167432284378E-15, 11.28660254037844091 ) ) ;
#189 = ADVANCED_FACE ( 'NONE', ( #11 ), #69, .F. ) ;
#190 = APPLICATION_PROTOCOL_DEFINITION ( 'international standard', 'config_control_design', 1994, #62 ) ;
#191 = LOCAL_TIME ( 7, 15, 22.00000000000000000, #182 ) ;
#192 = DATE_AND_TIME ( #112, #7 ) ;
#193 = ORGANIZATION ( 'UNSPECIFIED', 'UNSPECIFIED', '' ) ;
#194 = FACE_OUTER_BOUND ( 'NONE', #26, .T. ) ;
#195 = APPLICATION_PROTOCOL_DEFINITION ( 'international standard', 'config_control_design', 1994, #74 ) ;
#196 = EDGE_CURVE ( 'NONE', #153, #153, #128, .T. ) ;
#197 = FACE_OUTER_BOUND ( 'NONE', #216, .T. ) ;
#198 = DATE_AND_TIME ( #114, #174 ) ;
#199 = EDGE_LOOP ( 'NONE', ( #63 ) ) ;
#200 = CC_DESIGN_SECURITY_CLASSIFICATION ( #184, ( #86 ) ) ;
#201 = ORIENTED_EDGE ( 'NONE', *, *, #72, .F. ) ;
#202 = DIRECTION ( 'NONE',  ( -3.491481338843133355E-15, 1.224646799147353207E-16, -1.000000000000000000 ) ) ;
#203 = ADVANCED_FACE ( 'NONE', ( #171, #82 ), #219, .T. ) ;
#204 = CARTESIAN_POINT ( 'NONE',  ( 0.0000000000000000000, 0.0000000000000000000, 0.0000000000000000000 ) ) ;
#205 = DIRECTION ( 'NONE',  ( 0.0000000000000000000, 0.0000000000000000000, 1.000000000000000000 ) ) ;
#206 = AXIS2_PLACEMENT_3D ( 'NONE', #97, #181, #111 ) ;
#207 = EDGE_CURVE ( 'NONE', #68, #68, #67, .T. ) ;
#208 = PERSON_AND_ORGANIZATION ( #222, #193 ) ;
#209 = PERSON_AND_ORGANIZATION ( #222, #193 ) ;
#210 = PERSON_AND_ORGANIZATION_ROLE ( 'creator' ) ;
#211 = AXIS2_PLACEMENT_3D ( 'NONE', #188, #30, #218 ) ;
#212 = DIRECTION ( 'NONE',  ( 3.491481338843133355E-15, -1.224646799147353207E-16, 1.000000000000000000 ) ) ;
#213 = DIRECTION ( 'NONE',  ( -3.491481338843133355E-15, 1.224646799147353207E-16, -1.000000000000000000 ) ) ;
#214 = ORIENTED_EDGE ( 'NONE', *, *, #40, .T. ) ;
#215 = CIRCLE ( 'NONE', #142, 0.6999999999999986233 ) ;
#216 = EDGE_LOOP ( 'NONE', ( #9 ) ) ;
#217 = EDGE_LOOP ( 'NONE', ( #144 ) ) ;
#218 = DIRECTION ( 'NONE',  ( 0.0000000000000000000, 1.000000000000000000, 0.0000000000000000000 ) ) ;
#219 = CYLINDRICAL_SURFACE ( 'NONE', #148, 0.6999999999999992895 ) ;
#220 = CARTESIAN_POINT ( 'NONE',  ( 1.040461438975253740E-13, 0.7499999999999962252, 29.80000000000000071 ) ) ;
#221 = ADVANCED_FACE ( 'NONE', ( #173, #27 ), #14, .T. ) ;
#222 = PERSON ( 'UNSPECIFIED', 'UNSPECIFIED', 'UNSPECIFIED', ('UNSPECIFIED'), ('UNSPECIFIED'), ('UNSPECIFIED') ) ;
#223 = PERSON_AND_ORGANIZATION_ROLE ( 'design_owner' ) ;
ENDSEC;
END-ISO-10303-21;
