ISO-10303-21;
HEADER;
FILE_DESCRIPTION (( 'STEP AP203' ),
    '1' );
FILE_NAME ('55391.step',
    '2021-10-08T05:15:21',
    ( '' ),
    ( '' ),
    'SwSTEP 2.0',
    'SolidWorks 2019',
    '' );
FILE_SCHEMA (( 'CONFIG_CONTROL_DESIGN' ));
ENDSEC;

DATA;
#1 = CARTESIAN_POINT ( 'NONE',  ( 0.0000000000000000000, 0.0000000000000000000, 0.0000000000000000000 ) ) ;
#2 = CC_DESIGN_DATE_AND_TIME_ASSIGNMENT ( #177, #91, ( #143 ) ) ;
#3 = VERTEX_POINT ( 'NONE', #99 ) ;
#4 = APPROVAL_PERSON_ORGANIZATION ( #160, #185, #161 ) ;
#5 = APPROVAL_DATE_TIME ( #11, #123 ) ;
#6 = PERSON_AND_ORGANIZATION_ROLE ( 'classification_officer' ) ;
#7 = AXIS2_PLACEMENT_3D ( 'NONE', #76, #172, #154 ) ;
#8 = PRODUCT ( '55391', '55391', '', ( #178 ) ) ;
#9 = APPROVAL ( #113, 'UNSPECIFIED' ) ;
#10 = EDGE_LOOP ( 'NONE', ( #81 ) ) ;
#11 = DATE_AND_TIME ( #115, #44 ) ;
#12 = EDGE_LOOP ( 'NONE', ( #131 ) ) ;
#13 = AXIS2_PLACEMENT_3D ( 'NONE', #137, #170, #124 ) ;
#14 = FACE_OUTER_BOUND ( 'NONE', #132, .T. ) ;
#15 = FACE_OUTER_BOUND ( 'NONE', #201, .T. ) ;
#16 = DIRECTION ( 'NONE',  ( 0.0000000000000000000, 1.000000000000000000, 0.0000000000000000000 ) ) ;
#17 = DIRECTION ( 'NONE',  ( -5.542244444279826708E-31, -1.000000000000000000, -1.560003125878426828E-16 ) ) ;
#18 = CIRCLE ( 'NONE', #7, 0.6949999999999990630 ) ;
#19 = PRODUCT_RELATED_PRODUCT_CATEGORY ( 'detail', '', ( #8 ) ) ;
#20 = DIRECTION ( 'NONE',  ( 0.0000000000000000000, 1.000000000000000000, 0.0000000000000000000 ) ) ;
#21 =( NAMED_UNIT ( * ) SI_UNIT ( $, .STERADIAN. ) SOLID_ANGLE_UNIT ( ) );
#22 = APPLICATION_PROTOCOL_DEFINITION ( 'international standard', 'config_control_design', 1994, #86 ) ;
#23 = CC_DESIGN_SECURITY_CLASSIFICATION ( #157, ( #152 ) ) ;
#24 = PERSON_AND_ORGANIZATION ( #151, #105 ) ;
#25 = ADVANCED_FACE ( 'NONE', ( #183 ), #100, .T. ) ;
#26 = AXIS2_PLACEMENT_3D ( 'NONE', #181, #167, #210 ) ;
#27 = COORDINATED_UNIVERSAL_TIME_OFFSET ( 1, 0, .AHEAD. ) ;
#28 = EDGE_LOOP ( 'NONE', ( #199 ) ) ;
#29 = DIRECTION ( 'NONE',  ( -4.275831445896958607E-31, -1.000000000000000000, -1.224646799147353207E-16 ) ) ;
#30 = AXIS2_PLACEMENT_3D ( 'NONE', #155, #87, #16 ) ;
#31 = CALENDAR_DATE ( 2021, 8, 10 ) ;
#32 = DIRECTION ( 'NONE',  ( 4.275831445896959482E-31, 1.000000000000000000, 1.224646799147353207E-16 ) ) ;
#33 = CARTESIAN_POINT ( 'NONE',  ( 3.910459099504309989E-14, 0.6949999999999977307, 11.20000000000000107 ) ) ;
#34 = AXIS2_PLACEMENT_3D ( 'NONE', #120, #174, #176 ) ;
#35 = DIRECTION ( 'NONE',  ( -3.491481338843133355E-15, 1.224646799147353207E-16, -1.000000000000000000 ) ) ;
#36 = DIRECTION ( 'NONE',  ( -3.491481338843133355E-15, 1.224646799147353207E-16, -1.000000000000000000 ) ) ;
#37 = DIRECTION ( 'NONE',  ( -3.491481338843133355E-15, 1.224646799147353207E-16, -1.000000000000000000 ) ) ;
#38 = AXIS2_PLACEMENT_3D ( 'NONE', #135, #35, #204 ) ;
#39 = LOCAL_TIME ( 7, 15, 21.00000000000000000, #212 ) ;
#40 = PERSON_AND_ORGANIZATION ( #151, #105 ) ;
#41 = APPROVAL_STATUS ( 'not_yet_approved' ) ;
#42 = ADVANCED_FACE ( 'NONE', ( #116 ), #102, .T. ) ;
#43 = PERSON_AND_ORGANIZATION ( #151, #105 ) ;
#44 = LOCAL_TIME ( 7, 15, 21.00000000000000000, #198 ) ;
#45 = ORIENTED_EDGE ( 'NONE', *, *, #219, .T. ) ;
#46 = APPLICATION_PROTOCOL_DEFINITION ( 'international standard', 'config_control_design', 1994, #67 ) ;
#47 = ORIENTED_EDGE ( 'NONE', *, *, #48, .F. ) ;
#48 = EDGE_CURVE ( 'NONE', #153, #153, #222, .T. ) ;
#49 = MANIFOLD_SOLID_BREP ( 'Corps-Déplacer/Copier1[1]', #162 ) ;
#50 = CC_DESIGN_APPROVAL ( #123, ( #143 ) ) ;
#51 = CC_DESIGN_APPROVAL ( #185, ( #152 ) ) ;
#52 = APPROVAL_DATE_TIME ( #117, #9 ) ;
#53 = DIRECTION ( 'NONE',  ( -3.491481338843133355E-15, 1.224646799147353207E-16, -1.000000000000000000 ) ) ;
#54 = VERTEX_POINT ( 'NONE', #75 ) ;
#55 = CIRCLE ( 'NONE', #30, 0.5500000000000000444 ) ;
#56 = CARTESIAN_POINT ( 'NONE',  ( 1.047444401652940007E-13, 0.5499999999999963807, 30.00000000000000000 ) ) ;
#57 = PLANE ( 'NONE',  #166 ) ;
#58 = CC_DESIGN_PERSON_AND_ORGANIZATION_ASSIGNMENT ( #24, #6, ( #157 ) ) ;
#59 = PLANE ( 'NONE',  #34 ) ;
#60 = AXIS2_PLACEMENT_3D ( 'NONE', #173, #221, #103 ) ;
#61 = APPROVAL_PERSON_ORGANIZATION ( #43, #9, #180 ) ;
#62 = PERSON_AND_ORGANIZATION_ROLE ( 'design_supplier' ) ;
#63 = SECURITY_CLASSIFICATION_LEVEL ( 'unclassified' ) ;
#64 = CALENDAR_DATE ( 2021, 8, 10 ) ;
#65 = CIRCLE ( 'NONE', #38, 0.6949999999999990630 ) ;
#66 = CC_DESIGN_PERSON_AND_ORGANIZATION_ASSIGNMENT ( #83, #148, ( #143 ) ) ;
#67 = APPLICATION_CONTEXT ( 'configuration controlled 3d designs of mechanical parts and assemblies' ) ;
#68 = ORIENTED_EDGE ( 'NONE', *, *, #144, .F. ) ;
#69 = CIRCLE ( 'NONE', #192, 0.7499999999999998890 ) ;
#70 = EDGE_LOOP ( 'NONE', ( #47 ) ) ;
#71 = ADVANCED_FACE ( 'NONE', ( #191, #108 ), #147, .T. ) ;
#72 = SHAPE_DEFINITION_REPRESENTATION ( #129, #96 ) ;
#73 = VERTEX_POINT ( 'NONE', #33 ) ;
#74 = CARTESIAN_POINT ( 'NONE',  ( 1.047444401652940007E-13, -3.673940397442059178E-15, 30.00000000000000000 ) ) ;
#75 = CARTESIAN_POINT ( 'NONE',  ( 1.040461438975253740E-13, 0.7499999999999962252, 29.80000000000000071 ) ) ;
#76 = CARTESIAN_POINT ( 'NONE',  ( 3.910459099504309989E-14, -1.371604415045035710E-15, 11.20000000000000107 ) ) ;
#77 = DATE_AND_TIME ( #112, #94 ) ;
#78 = ADVANCED_FACE ( 'NONE', ( #188 ), #57, .F. ) ;
#79 = AXIS2_PLACEMENT_3D ( 'NONE', #139, #189, #17 ) ;
#80 = PERSON_AND_ORGANIZATION ( #151, #105 ) ;
#81 = ORIENTED_EDGE ( 'NONE', *, *, #110, .F. ) ;
#82 = PERSON_AND_ORGANIZATION ( #151, #105 ) ;
#83 = PERSON_AND_ORGANIZATION ( #151, #105 ) ;
#84 = EDGE_LOOP ( 'NONE', ( #45 ) ) ;
#85 = DIRECTION ( 'NONE',  ( -3.491481338843133355E-15, 1.224646799147353207E-16, -1.000000000000000000 ) ) ;
#86 = APPLICATION_CONTEXT ( 'configuration controlled 3d designs of mechanical parts and assemblies' ) ;
#87 = DIRECTION ( 'NONE',  ( -3.491481338843133355E-15, 1.224646799147353207E-16, -1.000000000000000000 ) ) ;
#88 = FACE_OUTER_BOUND ( 'NONE', #197, .T. ) ;
#89 = CARTESIAN_POINT ( 'NONE',  ( 3.943719926403360643E-14, -1.383270742671009225E-15, 11.29526279441628489 ) ) ;
#90 = DIRECTION ( 'NONE',  ( 3.491481338843133355E-15, -1.224646799147353207E-16, 1.000000000000000000 ) ) ;
#91 = DATE_TIME_ROLE ( 'creation_date' ) ;
#92 = CC_DESIGN_PERSON_AND_ORGANIZATION_ASSIGNMENT ( #140, #62, ( #152 ) ) ;
#93 = CALENDAR_DATE ( 2021, 8, 10 ) ;
#94 = LOCAL_TIME ( 7, 15, 21.00000000000000000, #126 ) ;
#95 =( LENGTH_UNIT ( ) NAMED_UNIT ( * ) SI_UNIT ( .MILLI., .METRE. ) );
#96 = ADVANCED_BREP_SHAPE_REPRESENTATION ( '55391', ( #49, #196, #26 ), #156 ) ;
#97 = LOCAL_TIME ( 7, 15, 21.00000000000000000, #27 ) ;
#98 = ORIENTED_EDGE ( 'NONE', *, *, #48, .T. ) ;
#99 = CARTESIAN_POINT ( 'NONE',  ( 3.943719926403360643E-14, 0.7499999999999963363, 11.29526279441628489 ) ) ;
#100 = PLANE ( 'NONE',  #171 ) ;
#101 = EDGE_LOOP ( 'NONE', ( #114 ) ) ;
#102 = CONICAL_SURFACE ( 'NONE', #79, 0.6949999999999986189, 1.029744258676649649 ) ;
#103 = DIRECTION ( 'NONE',  ( 0.0000000000000000000, 1.000000000000000000, 0.0000000000000000000 ) ) ;
#104 = UNCERTAINTY_MEASURE_WITH_UNIT (LENGTH_MEASURE( 1.000000000000000082E-05 ), #95, 'distance_accuracy_value', 'NONE');
#105 = ORGANIZATION ( 'UNSPECIFIED', 'UNSPECIFIED', '' ) ;
#106 = CARTESIAN_POINT ( 'NONE',  ( 1.040461438975253740E-13, -3.649447461459112464E-15, 29.80000000000000071 ) ) ;
#107 = FACE_OUTER_BOUND ( 'NONE', #84, .T. ) ;
#108 = FACE_BOUND ( 'NONE', #118, .T. ) ;
#109 = DIRECTION ( 'NONE',  ( 4.275831445896958607E-31, 1.000000000000000000, 1.224646799147353207E-16 ) ) ;
#110 = EDGE_CURVE ( 'NONE', #73, #73, #18, .T. ) ;
#111 = APPROVAL_ROLE ( '' ) ;
#112 = CALENDAR_DATE ( 2021, 8, 10 ) ;
#113 = APPROVAL_STATUS ( 'not_yet_approved' ) ;
#114 = ORIENTED_EDGE ( 'NONE', *, *, #165, .F. ) ;
#115 = CALENDAR_DATE ( 2021, 8, 10 ) ;
#116 = FACE_OUTER_BOUND ( 'NONE', #149, .T. ) ;
#117 = DATE_AND_TIME ( #31, #97 ) ;
#118 = EDGE_LOOP ( 'NONE', ( #200 ) ) ;
#119 = FACE_BOUND ( 'NONE', #150, .T. ) ;
#120 = CARTESIAN_POINT ( 'NONE',  ( 3.910459099504309989E-14, -2.072306899813267988E-31, 11.20000000000000107 ) ) ;
#121 = FACE_OUTER_BOUND ( 'NONE', #70, .T. ) ;
#122 = CARTESIAN_POINT ( 'NONE',  ( 1.047444401652940007E-13, 4.124339402320052999E-33, 30.00000000000000000 ) ) ;
#123 = APPROVAL ( #194, 'UNSPECIFIED' ) ;
#124 = DIRECTION ( 'NONE',  ( 4.275831445896957731E-31, 1.000000000000000000, 1.224646799147353207E-16 ) ) ;
#125 = LOCAL_TIME ( 7, 15, 21.00000000000000000, #214 ) ;
#126 = COORDINATED_UNIVERSAL_TIME_OFFSET ( 1, 0, .AHEAD. ) ;
#127 = DATE_AND_TIME ( #64, #39 ) ;
#128 = AXIS2_PLACEMENT_3D ( 'NONE', #218, #53, #138 ) ;
#129 = PRODUCT_DEFINITION_SHAPE ( 'NONE', 'NONE',  #143 ) ;
#130 = CC_DESIGN_DATE_AND_TIME_ASSIGNMENT ( #127, #195, ( #157 ) ) ;
#131 = ORIENTED_EDGE ( 'NONE', *, *, #190, .F. ) ;
#132 = EDGE_LOOP ( 'NONE', ( #145 ) ) ;
#133 = VERTEX_POINT ( 'NONE', #203 ) ;
#134 = CC_DESIGN_PERSON_AND_ORGANIZATION_ASSIGNMENT ( #40, #142, ( #8 ) ) ;
#135 = CARTESIAN_POINT ( 'NONE',  ( 3.910459099504309989E-14, -1.371604415045035710E-15, 11.20000000000000107 ) ) ;
#136 = CONICAL_SURFACE ( 'NONE', #179, 0.7499999999999977796, 0.5235987755983109171 ) ;
#137 = CARTESIAN_POINT ( 'NONE',  ( 0.0000000000000000000, 0.0000000000000000000, 0.0000000000000000000 ) ) ;
#138 = DIRECTION ( 'NONE',  ( 5.542244444279826708E-31, 1.000000000000000000, 1.560003125878426828E-16 ) ) ;
#139 = CARTESIAN_POINT ( 'NONE',  ( 1.458036078813432738E-15, -5.114102135089347791E-17, 0.4175981302241580928 ) ) ;
#140 = PERSON_AND_ORGANIZATION ( #151, #105 ) ;
#141 = CC_DESIGN_APPROVAL ( #9, ( #157 ) ) ;
#142 = PERSON_AND_ORGANIZATION_ROLE ( 'design_owner' ) ;
#143 = PRODUCT_DEFINITION ( 'UNKNOWN', '', #152, #220 ) ;
#144 = EDGE_CURVE ( 'NONE', #133, #133, #65, .T. ) ;
#145 = ORIENTED_EDGE ( 'NONE', *, *, #110, .T. ) ;
#146 = CARTESIAN_POINT ( 'NONE',  ( 3.910459099504309989E-14, -2.072306899813267988E-31, 11.20000000000000107 ) ) ;
#147 = CONICAL_SURFACE ( 'NONE', #202, 0.5500000000000000444, 0.7853981633974510546 ) ;
#148 = PERSON_AND_ORGANIZATION_ROLE ( 'creator' ) ;
#149 = EDGE_LOOP ( 'NONE', ( #98 ) ) ;
#150 = EDGE_LOOP ( 'NONE', ( #68 ) ) ;
#151 = PERSON ( 'UNSPECIFIED', 'UNSPECIFIED', 'UNSPECIFIED', ('UNSPECIFIED'), ('UNSPECIFIED'), ('UNSPECIFIED') ) ;
#152 = PRODUCT_DEFINITION_FORMATION_WITH_SPECIFIED_SOURCE ( 'ANY', '', #8, .NOT_KNOWN. ) ;
#153 = VERTEX_POINT ( 'NONE', #217 ) ;
#154 = DIRECTION ( 'NONE',  ( 0.0000000000000000000, 1.000000000000000000, 0.0000000000000000000 ) ) ;
#155 = CARTESIAN_POINT ( 'NONE',  ( 1.047444401652940007E-13, -3.673940397442059178E-15, 30.00000000000000000 ) ) ;
#156 =( GEOMETRIC_REPRESENTATION_CONTEXT ( 3 ) GLOBAL_UNCERTAINTY_ASSIGNED_CONTEXT ( ( #104 ) ) GLOBAL_UNIT_ASSIGNED_CONTEXT ( ( #95, #193, #21 ) ) REPRESENTATION_CONTEXT ( 'NONE', 'WORKASPACE' ) );
#157 = SECURITY_CLASSIFICATION ( '', '', #63 ) ;
#158 = CYLINDRICAL_SURFACE ( 'NONE', #13, 0.6949999999999988409 ) ;
#159 = FACE_OUTER_BOUND ( 'NONE', #28, .T. ) ;
#160 = PERSON_AND_ORGANIZATION ( #151, #105 ) ;
#161 = APPROVAL_ROLE ( '' ) ;
#162 = CLOSED_SHELL ( 'NONE', ( #163, #169, #208, #71, #78 ) ) ;
#163 = ADVANCED_FACE ( 'NONE', ( #88 ), #59, .F. ) ;
#164 = APPROVAL_DATE_TIME ( #77, #185 ) ;
#165 = EDGE_CURVE ( 'NONE', #54, #54, #69, .T. ) ;
#166 = AXIS2_PLACEMENT_3D ( 'NONE', #122, #37, #109 ) ;
#167 = DIRECTION ( 'NONE',  ( 0.0000000000000000000, 0.0000000000000000000, 1.000000000000000000 ) ) ;
#168 = CLOSED_SHELL ( 'NONE', ( #42, #175, #25 ) ) ;
#169 = ADVANCED_FACE ( 'NONE', ( #119, #107 ), #136, .T. ) ;
#170 = DIRECTION ( 'NONE',  ( -3.491481338843133355E-15, 1.224646799147353207E-16, -1.000000000000000000 ) ) ;
#171 = AXIS2_PLACEMENT_3D ( 'NONE', #146, #213, #29 ) ;
#172 = DIRECTION ( 'NONE',  ( -3.491481338843133355E-15, 1.224646799147353207E-16, -1.000000000000000000 ) ) ;
#173 = CARTESIAN_POINT ( 'NONE',  ( 3.943719926403360643E-14, -1.383270742671009225E-15, 11.29526279441628489 ) ) ;
#174 = DIRECTION ( 'NONE',  ( 3.491481338843133355E-15, -1.224646799147353207E-16, 1.000000000000000000 ) ) ;
#175 = ADVANCED_FACE ( 'NONE', ( #121, #14 ), #158, .T. ) ;
#176 = DIRECTION ( 'NONE',  ( -4.275831445896958607E-31, -1.000000000000000000, -1.224646799147353207E-16 ) ) ;
#177 = DATE_AND_TIME ( #93, #125 ) ;
#178 = MECHANICAL_CONTEXT ( 'NONE', #67, 'mechanical' ) ;
#179 = AXIS2_PLACEMENT_3D ( 'NONE', #89, #90, #207 ) ;
#180 = APPROVAL_ROLE ( '' ) ;
#181 = CARTESIAN_POINT ( 'NONE',  ( 0.0000000000000000000, 0.0000000000000000000, 0.0000000000000000000 ) ) ;
#182 = CC_DESIGN_PERSON_AND_ORGANIZATION_ASSIGNMENT ( #80, #211, ( #152 ) ) ;
#183 = FACE_OUTER_BOUND ( 'NONE', #10, .T. ) ;
#184 = CIRCLE ( 'NONE', #60, 0.7499999999999977796 ) ;
#185 = APPROVAL ( #41, 'UNSPECIFIED' ) ;
#186 = DIRECTION ( 'NONE',  ( -3.491481338843133355E-15, 1.224646799147353207E-16, -1.000000000000000000 ) ) ;
#187 = APPROVAL_PERSON_ORGANIZATION ( #82, #123, #111 ) ;
#188 = FACE_OUTER_BOUND ( 'NONE', #12, .T. ) ;
#189 = DIRECTION ( 'NONE',  ( 3.491481338843133355E-15, -1.224646799147353207E-16, 1.000000000000000000 ) ) ;
#190 = EDGE_CURVE ( 'NONE', #205, #205, #55, .T. ) ;
#191 = FACE_OUTER_BOUND ( 'NONE', #101, .T. ) ;
#192 = AXIS2_PLACEMENT_3D ( 'NONE', #106, #186, #20 ) ;
#193 =( NAMED_UNIT ( * ) PLANE_ANGLE_UNIT ( ) SI_UNIT ( $, .RADIAN. ) );
#194 = APPROVAL_STATUS ( 'not_yet_approved' ) ;
#195 = DATE_TIME_ROLE ( 'classification_date' ) ;
#196 = MANIFOLD_SOLID_BREP ( 'Corps-Déplacer/Copier1[2]', #168 ) ;
#197 = EDGE_LOOP ( 'NONE', ( #215 ) ) ;
#198 = COORDINATED_UNIVERSAL_TIME_OFFSET ( 1, 0, .AHEAD. ) ;
#199 = ORIENTED_EDGE ( 'NONE', *, *, #219, .F. ) ;
#200 = ORIENTED_EDGE ( 'NONE', *, *, #190, .T. ) ;
#201 = EDGE_LOOP ( 'NONE', ( #216 ) ) ;
#202 = AXIS2_PLACEMENT_3D ( 'NONE', #74, #36, #206 ) ;
#203 = CARTESIAN_POINT ( 'NONE',  ( 3.910459099504309989E-14, 0.6949999999999977307, 11.20000000000000107 ) ) ;
#204 = DIRECTION ( 'NONE',  ( 0.0000000000000000000, 1.000000000000000000, 0.0000000000000000000 ) ) ;
#205 = VERTEX_POINT ( 'NONE', #56 ) ;
#206 = DIRECTION ( 'NONE',  ( 0.0000000000000000000, 1.000000000000000000, 0.0000000000000000000 ) ) ;
#207 = DIRECTION ( 'NONE',  ( 0.0000000000000000000, -1.000000000000000000, 0.0000000000000000000 ) ) ;
#208 = ADVANCED_FACE ( 'NONE', ( #159, #15 ), #223, .T. ) ;
#209 = AXIS2_PLACEMENT_3D ( 'NONE', #1, #85, #32 ) ;
#210 = DIRECTION ( 'NONE',  ( 1.000000000000000000, 0.0000000000000000000, 0.0000000000000000000 ) ) ;
#211 = PERSON_AND_ORGANIZATION_ROLE ( 'creator' ) ;
#212 = COORDINATED_UNIVERSAL_TIME_OFFSET ( 1, 0, .AHEAD. ) ;
#213 = DIRECTION ( 'NONE',  ( 3.491481338843133355E-15, -1.224646799147353207E-16, 1.000000000000000000 ) ) ;
#214 = COORDINATED_UNIVERSAL_TIME_OFFSET ( 1, 0, .AHEAD. ) ;
#215 = ORIENTED_EDGE ( 'NONE', *, *, #144, .T. ) ;
#216 = ORIENTED_EDGE ( 'NONE', *, *, #165, .T. ) ;
#217 = CARTESIAN_POINT ( 'NONE',  ( 1.458036078813433132E-15, 0.6949999999999986189, 0.4175981302241582038 ) ) ;
#218 = CARTESIAN_POINT ( 'NONE',  ( 1.458036078813432738E-15, -5.114102135089347791E-17, 0.4175981302241580928 ) ) ;
#219 = EDGE_CURVE ( 'NONE', #3, #3, #184, .T. ) ;
#220 = DESIGN_CONTEXT ( 'detailed design', #86, 'design' ) ;
#221 = DIRECTION ( 'NONE',  ( -3.491481338843133355E-15, 1.224646799147353207E-16, -1.000000000000000000 ) ) ;
#222 = CIRCLE ( 'NONE', #128, 0.6949999999999986189 ) ;
#223 = CYLINDRICAL_SURFACE ( 'NONE', #209, 0.7499999999999987788 ) ;
ENDSEC;
END-ISO-10303-21;
