ISO-10303-21;
HEADER;
FILE_DESCRIPTION (( 'STEP AP203' ),
    '1' );
FILE_NAME ('55390.step',
    '2021-10-08T05:15:21',
    ( '' ),
    ( '' ),
    'SwSTEP 2.0',
    'SolidWorks 2019',
    '' );
FILE_SCHEMA (( 'CONFIG_CONTROL_DESIGN' ));
ENDSEC;

DATA;
#1 = DIRECTION ( 'NONE',  ( -3.491481338843133355E-15, 1.224646799147353207E-16, -1.000000000000000000 ) ) ;
#2 = AXIS2_PLACEMENT_3D ( 'NONE', #193, #127, #104 ) ;
#3 = DIRECTION ( 'NONE',  ( -3.491481338843133355E-15, 1.224646799147353207E-16, -1.000000000000000000 ) ) ;
#4 = DIRECTION ( 'NONE',  ( -3.491481338843133355E-15, 1.224646799147353207E-16, -1.000000000000000000 ) ) ;
#5 = EDGE_CURVE ( 'NONE', #45, #45, #203, .T. ) ;
#6 = CARTESIAN_POINT ( 'NONE',  ( 3.910459099504309358E-14, 5.174171250183382883E-33, 11.19999999999999929 ) ) ;
#7 = LOCAL_TIME ( 7, 15, 21.00000000000000000, #9 ) ;
#8 = CARTESIAN_POINT ( 'NONE',  ( 1.040461438975253740E-13, -3.649447461459112464E-15, 29.80000000000000071 ) ) ;
#9 = COORDINATED_UNIVERSAL_TIME_OFFSET ( 1, 0, .AHEAD. ) ;
#10 = AXIS2_PLACEMENT_3D ( 'NONE', #174, #4, #75 ) ;
#11 = DIRECTION ( 'NONE',  ( 3.491481338843133355E-15, -1.224646799147353207E-16, 1.000000000000000000 ) ) ;
#12 = PERSON_AND_ORGANIZATION ( #218, #90 ) ;
#13 = APPROVAL_ROLE ( '' ) ;
#14 = CC_DESIGN_DATE_AND_TIME_ASSIGNMENT ( #205, #96, ( #20 ) ) ;
#15 = DATE_AND_TIME ( #151, #150 ) ;
#16 = DESIGN_CONTEXT ( 'detailed design', #124, 'design' ) ;
#17 = EDGE_LOOP ( 'NONE', ( #119 ) ) ;
#18 = PLANE ( 'NONE',  #19 ) ;
#19 = AXIS2_PLACEMENT_3D ( 'NONE', #6, #21, #144 ) ;
#20 = SECURITY_CLASSIFICATION ( '', '', #200 ) ;
#21 = DIRECTION ( 'NONE',  ( 3.491481338843133355E-15, -1.224646799147353207E-16, 1.000000000000000000 ) ) ;
#22 = ADVANCED_FACE ( 'NONE', ( #55 ), #18, .T. ) ;
#23 = FACE_OUTER_BOUND ( 'NONE', #210, .T. ) ;
#24 = CARTESIAN_POINT ( 'NONE',  ( 3.910459099504309358E-14, -1.371604415045035513E-15, 11.19999999999999929 ) ) ;
#25 = AXIS2_PLACEMENT_3D ( 'NONE', #175, #58, #126 ) ;
#26 = LOCAL_TIME ( 7, 15, 21.00000000000000000, #194 ) ;
#27 = DIRECTION ( 'NONE',  ( 0.0000000000000000000, 1.000000000000000000, 0.0000000000000000000 ) ) ;
#28 =( NAMED_UNIT ( * ) PLANE_ANGLE_UNIT ( ) SI_UNIT ( $, .RADIAN. ) );
#29 = DIRECTION ( 'NONE',  ( 0.0000000000000000000, 0.0000000000000000000, 1.000000000000000000 ) ) ;
#30 = CARTESIAN_POINT ( 'NONE',  ( 3.910459099504309358E-14, 5.174171250183382883E-33, 11.19999999999999929 ) ) ;
#31 = PRODUCT_DEFINITION ( 'UNKNOWN', '', #68, #16 ) ;
#32 = COORDINATED_UNIVERSAL_TIME_OFFSET ( 1, 0, .AHEAD. ) ;
#33 = EDGE_LOOP ( 'NONE', ( #153 ) ) ;
#34 = PRODUCT_DEFINITION_SHAPE ( 'NONE', 'NONE',  #31 ) ;
#35 = ORIENTED_EDGE ( 'NONE', *, *, #72, .T. ) ;
#36 = AXIS2_PLACEMENT_3D ( 'NONE', #141, #159, #44 ) ;
#37 = APPROVAL_PERSON_ORGANIZATION ( #183, #163, #114 ) ;
#38 = CYLINDRICAL_SURFACE ( 'NONE', #2, 0.6899999999999989475 ) ;
#39 = PLANE ( 'NONE',  #223 ) ;
#40 = AXIS2_PLACEMENT_3D ( 'NONE', #24, #86, #191 ) ;
#41 = CARTESIAN_POINT ( 'NONE',  ( 1.447546610620530258E-15, -5.077310033398057749E-17, 0.4145938271290202648 ) ) ;
#42 = FACE_BOUND ( 'NONE', #82, .T. ) ;
#43 = ADVANCED_FACE ( 'NONE', ( #140 ), #39, .F. ) ;
#44 = DIRECTION ( 'NONE',  ( 0.0000000000000000000, 1.000000000000000000, 0.0000000000000000000 ) ) ;
#45 = VERTEX_POINT ( 'NONE', #128 ) ;
#46 = PERSON_AND_ORGANIZATION_ROLE ( 'creator' ) ;
#47 = MANIFOLD_SOLID_BREP ( 'Corps-Déplacer/Copier1[1]', #167 ) ;
#48 = DATE_AND_TIME ( #198, #7 ) ;
#49 = CC_DESIGN_PERSON_AND_ORGANIZATION_ASSIGNMENT ( #12, #160, ( #103 ) ) ;
#50 = PERSON_AND_ORGANIZATION_ROLE ( 'classification_officer' ) ;
#51 = ORIENTED_EDGE ( 'NONE', *, *, #5, .F. ) ;
#52 = CONICAL_SURFACE ( 'NONE', #25, 0.6899999999999985034, 1.029744258676649649 ) ;
#53 = LOCAL_TIME ( 7, 15, 21.00000000000000000, #117 ) ;
#54 = DIRECTION ( 'NONE',  ( 4.275831445896958607E-31, 1.000000000000000000, 1.224646799147353207E-16 ) ) ;
#55 = FACE_OUTER_BOUND ( 'NONE', #93, .T. ) ;
#56 = CC_DESIGN_PERSON_AND_ORGANIZATION_ASSIGNMENT ( #63, #46, ( #31 ) ) ;
#57 = FACE_OUTER_BOUND ( 'NONE', #17, .T. ) ;
#58 = DIRECTION ( 'NONE',  ( 3.491481338843133355E-15, -1.224646799147353207E-16, 1.000000000000000000 ) ) ;
#59 = CARTESIAN_POINT ( 'NONE',  ( 3.910459099504309358E-14, 0.6899999999999979483, 11.19999999999999929 ) ) ;
#60 = CC_DESIGN_SECURITY_CLASSIFICATION ( #20, ( #68 ) ) ;
#61 = VERTEX_POINT ( 'NONE', #130 ) ;
#62 = ADVANCED_FACE ( 'NONE', ( #42, #125 ), #171, .T. ) ;
#63 = PERSON_AND_ORGANIZATION ( #218, #90 ) ;
#64 = PERSON_AND_ORGANIZATION ( #218, #90 ) ;
#65 = ADVANCED_FACE ( 'NONE', ( #57, #143 ), #181, .T. ) ;
#66 = ORIENTED_EDGE ( 'NONE', *, *, #136, .F. ) ;
#67 = LOCAL_TIME ( 7, 15, 21.00000000000000000, #32 ) ;
#68 = PRODUCT_DEFINITION_FORMATION_WITH_SPECIFIED_SOURCE ( 'ANY', '', #103, .NOT_KNOWN. ) ;
#69 = ADVANCED_FACE ( 'NONE', ( #71, #213 ), #155, .T. ) ;
#70 = COORDINATED_UNIVERSAL_TIME_OFFSET ( 1, 0, .AHEAD. ) ;
#71 = FACE_OUTER_BOUND ( 'NONE', #182, .T. ) ;
#72 = EDGE_CURVE ( 'NONE', #78, #78, #178, .T. ) ;
#73 = CARTESIAN_POINT ( 'NONE',  ( 1.047444401652940007E-13, -3.673940397442059178E-15, 30.00000000000000000 ) ) ;
#74 = DIRECTION ( 'NONE',  ( 0.0000000000000000000, 1.000000000000000000, 0.0000000000000000000 ) ) ;
#75 = DIRECTION ( 'NONE',  ( 4.275831445896959482E-31, 1.000000000000000000, 1.224646799147353207E-16 ) ) ;
#76 = DIRECTION ( 'NONE',  ( -3.491481338843133355E-15, 1.224646799147353207E-16, -1.000000000000000000 ) ) ;
#77 = CARTESIAN_POINT ( 'NONE',  ( 0.0000000000000000000, 0.0000000000000000000, 0.0000000000000000000 ) ) ;
#78 = VERTEX_POINT ( 'NONE', #59 ) ;
#79 = CALENDAR_DATE ( 2021, 8, 10 ) ;
#80 = AXIS2_PLACEMENT_3D ( 'NONE', #41, #1, #83 ) ;
#81 = CC_DESIGN_APPROVAL ( #192, ( #68 ) ) ;
#82 = EDGE_LOOP ( 'NONE', ( #105 ) ) ;
#83 = DIRECTION ( 'NONE',  ( 5.582405635905043440E-31, 1.000000000000000000, 1.571307496355806900E-16 ) ) ;
#84 = AXIS2_PLACEMENT_3D ( 'NONE', #8, #76, #27 ) ;
#85 = CARTESIAN_POINT ( 'NONE',  ( 3.946743637939637517E-14, -1.384331317909734072E-15, 11.30392304845413065 ) ) ;
#86 = DIRECTION ( 'NONE',  ( -3.491481338843133355E-15, 1.224646799147353207E-16, -1.000000000000000000 ) ) ;
#87 = FACE_OUTER_BOUND ( 'NONE', #123, .T. ) ;
#88 = AXIS2_PLACEMENT_3D ( 'NONE', #85, #172, #212 ) ;
#89 = DATE_AND_TIME ( #177, #67 ) ;
#90 = ORGANIZATION ( 'UNSPECIFIED', 'UNSPECIFIED', '' ) ;
#91 = VERTEX_POINT ( 'NONE', #92 ) ;
#92 = CARTESIAN_POINT ( 'NONE',  ( 1.047444401652940007E-13, 0.5499999999999963807, 30.00000000000000000 ) ) ;
#93 = EDGE_LOOP ( 'NONE', ( #66 ) ) ;
#94 = PERSON_AND_ORGANIZATION_ROLE ( 'design_supplier' ) ;
#95 = CC_DESIGN_APPROVAL ( #166, ( #31 ) ) ;
#96 = DATE_TIME_ROLE ( 'classification_date' ) ;
#97 = ORIENTED_EDGE ( 'NONE', *, *, #136, .T. ) ;
#98 = DIRECTION ( 'NONE',  ( -3.491481338843133355E-15, 1.224646799147353207E-16, -1.000000000000000000 ) ) ;
#99 = ORIENTED_EDGE ( 'NONE', *, *, #176, .T. ) ;
#100 = AXIS2_PLACEMENT_3D ( 'NONE', #208, #142, #101 ) ;
#101 = DIRECTION ( 'NONE',  ( 0.0000000000000000000, 1.000000000000000000, 0.0000000000000000000 ) ) ;
#102 = ADVANCED_FACE ( 'NONE', ( #23 ), #52, .T. ) ;
#103 = PRODUCT ( '55390', '55390', '', ( #216 ) ) ;
#104 = DIRECTION ( 'NONE',  ( 4.275831445896958607E-31, 1.000000000000000000, 1.224646799147353207E-16 ) ) ;
#105 = ORIENTED_EDGE ( 'NONE', *, *, #72, .F. ) ;
#106 = AXIS2_PLACEMENT_3D ( 'NONE', #73, #186, #122 ) ;
#107 = CARTESIAN_POINT ( 'NONE',  ( 1.040461438975253740E-13, 0.7499999999999962252, 29.80000000000000071 ) ) ;
#108 = APPLICATION_PROTOCOL_DEFINITION ( 'international standard', 'config_control_design', 1994, #124 ) ;
#109 = APPLICATION_CONTEXT ( 'configuration controlled 3d designs of mechanical parts and assemblies' ) ;
#110 = VERTEX_POINT ( 'NONE', #107 ) ;
#111 = PERSON_AND_ORGANIZATION ( #218, #90 ) ;
#112 = ADVANCED_BREP_SHAPE_REPRESENTATION ( '55390', ( #47, #121, #146 ), #116 ) ;
#113 = APPROVAL_ROLE ( '' ) ;
#114 = APPROVAL_ROLE ( '' ) ;
#115 = ORIENTED_EDGE ( 'NONE', *, *, #148, .F. ) ;
#116 =( GEOMETRIC_REPRESENTATION_CONTEXT ( 3 ) GLOBAL_UNCERTAINTY_ASSIGNED_CONTEXT ( ( #201 ) ) GLOBAL_UNIT_ASSIGNED_CONTEXT ( ( #162, #28, #180 ) ) REPRESENTATION_CONTEXT ( 'NONE', 'WORKASPACE' ) );
#117 = COORDINATED_UNIVERSAL_TIME_OFFSET ( 1, 0, .AHEAD. ) ;
#118 = APPROVAL_STATUS ( 'not_yet_approved' ) ;
#119 = ORIENTED_EDGE ( 'NONE', *, *, #176, .F. ) ;
#120 = AXIS2_PLACEMENT_3D ( 'NONE', #187, #3, #74 ) ;
#121 = MANIFOLD_SOLID_BREP ( 'Corps-Déplacer/Copier1[2]', #129 ) ;
#122 = DIRECTION ( 'NONE',  ( 0.0000000000000000000, 1.000000000000000000, 0.0000000000000000000 ) ) ;
#123 = EDGE_LOOP ( 'NONE', ( #97 ) ) ;
#124 = APPLICATION_CONTEXT ( 'configuration controlled 3d designs of mechanical parts and assemblies' ) ;
#125 = FACE_OUTER_BOUND ( 'NONE', #33, .T. ) ;
#126 = DIRECTION ( 'NONE',  ( -5.582405635905043440E-31, -1.000000000000000000, -1.571307496355806900E-16 ) ) ;
#127 = DIRECTION ( 'NONE',  ( -3.491481338843133355E-15, 1.224646799147353207E-16, -1.000000000000000000 ) ) ;
#128 = CARTESIAN_POINT ( 'NONE',  ( 1.447546610620530652E-15, 0.6899999999999985034, 0.4145938271290203758 ) ) ;
#129 = CLOSED_SHELL ( 'NONE', ( #102, #157, #22 ) ) ;
#130 = CARTESIAN_POINT ( 'NONE',  ( 3.910459099504309358E-14, 0.6899999999999979483, 11.19999999999999929 ) ) ;
#131 = CC_DESIGN_PERSON_AND_ORGANIZATION_ASSIGNMENT ( #164, #50, ( #20 ) ) ;
#132 = APPLICATION_PROTOCOL_DEFINITION ( 'international standard', 'config_control_design', 1994, #109 ) ;
#133 = CIRCLE ( 'NONE', #40, 0.6899999999999992806 ) ;
#134 = DIRECTION ( 'NONE',  ( -4.275831445896958607E-31, -1.000000000000000000, -1.224646799147353207E-16 ) ) ;
#135 = ORIENTED_EDGE ( 'NONE', *, *, #5, .T. ) ;
#136 = EDGE_CURVE ( 'NONE', #61, #61, #133, .T. ) ;
#137 = SHAPE_DEFINITION_REPRESENTATION ( #34, #112 ) ;
#138 = CALENDAR_DATE ( 2021, 8, 10 ) ;
#139 = CIRCLE ( 'NONE', #84, 0.7499999999999998890 ) ;
#140 = FACE_OUTER_BOUND ( 'NONE', #168, .T. ) ;
#141 = CARTESIAN_POINT ( 'NONE',  ( 3.946743637939637517E-14, -1.384331317909734072E-15, 11.30392304845413065 ) ) ;
#142 = DIRECTION ( 'NONE',  ( -3.491481338843133355E-15, 1.224646799147353207E-16, -1.000000000000000000 ) ) ;
#143 = FACE_BOUND ( 'NONE', #184, .T. ) ;
#144 = DIRECTION ( 'NONE',  ( -4.275831445896958607E-31, -1.000000000000000000, -1.224646799147353207E-16 ) ) ;
#145 = DATE_AND_TIME ( #79, #26 ) ;
#146 = AXIS2_PLACEMENT_3D ( 'NONE', #77, #29, #161 ) ;
#147 = CARTESIAN_POINT ( 'NONE',  ( 3.946743637939637517E-14, 0.7499999999999963363, 11.30392304845413065 ) ) ;
#148 = EDGE_CURVE ( 'NONE', #91, #91, #220, .T. ) ;
#149 = PLANE ( 'NONE',  #158 ) ;
#150 = LOCAL_TIME ( 7, 15, 21.00000000000000000, #70 ) ;
#151 = CALENDAR_DATE ( 2021, 8, 10 ) ;
#152 = ORIENTED_EDGE ( 'NONE', *, *, #169, .F. ) ;
#153 = ORIENTED_EDGE ( 'NONE', *, *, #169, .T. ) ;
#154 = APPROVAL_PERSON_ORGANIZATION ( #111, #192, #13 ) ;
#155 = CYLINDRICAL_SURFACE ( 'NONE', #10, 0.7499999999999987788 ) ;
#156 = FACE_OUTER_BOUND ( 'NONE', #222, .T. ) ;
#157 = ADVANCED_FACE ( 'NONE', ( #156, #87 ), #38, .T. ) ;
#158 = AXIS2_PLACEMENT_3D ( 'NONE', #30, #11, #134 ) ;
#159 = DIRECTION ( 'NONE',  ( -3.491481338843133355E-15, 1.224646799147353207E-16, -1.000000000000000000 ) ) ;
#160 = PERSON_AND_ORGANIZATION_ROLE ( 'design_owner' ) ;
#161 = DIRECTION ( 'NONE',  ( 1.000000000000000000, 0.0000000000000000000, 0.0000000000000000000 ) ) ;
#162 =( LENGTH_UNIT ( ) NAMED_UNIT ( * ) SI_UNIT ( .MILLI., .METRE. ) );
#163 = APPROVAL ( #118, 'UNSPECIFIED' ) ;
#164 = PERSON_AND_ORGANIZATION ( #218, #90 ) ;
#165 = EDGE_LOOP ( 'NONE', ( #35 ) ) ;
#166 = APPROVAL ( #196, 'UNSPECIFIED' ) ;
#167 = CLOSED_SHELL ( 'NONE', ( #204, #62, #69, #65, #43 ) ) ;
#168 = EDGE_LOOP ( 'NONE', ( #115 ) ) ;
#169 = EDGE_CURVE ( 'NONE', #217, #217, #188, .T. ) ;
#170 = EDGE_LOOP ( 'NONE', ( #99 ) ) ;
#171 = CONICAL_SURFACE ( 'NONE', #88, 0.7499999999999977796, 0.5235987755982978165 ) ;
#172 = DIRECTION ( 'NONE',  ( 3.491481338843133355E-15, -1.224646799147353207E-16, 1.000000000000000000 ) ) ;
#173 = CARTESIAN_POINT ( 'NONE',  ( 1.047444401652940007E-13, 4.124339402320052999E-33, 30.00000000000000000 ) ) ;
#174 = CARTESIAN_POINT ( 'NONE',  ( 0.0000000000000000000, 0.0000000000000000000, 0.0000000000000000000 ) ) ;
#175 = CARTESIAN_POINT ( 'NONE',  ( 1.447546610620530258E-15, -5.077310033398057749E-17, 0.4145938271290202648 ) ) ;
#176 = EDGE_CURVE ( 'NONE', #110, #110, #139, .T. ) ;
#177 = CALENDAR_DATE ( 2021, 8, 10 ) ;
#178 = CIRCLE ( 'NONE', #100, 0.6899999999999992806 ) ;
#179 = APPROVAL_STATUS ( 'not_yet_approved' ) ;
#180 =( NAMED_UNIT ( * ) SI_UNIT ( $, .STERADIAN. ) SOLID_ANGLE_UNIT ( ) );
#181 = CONICAL_SURFACE ( 'NONE', #120, 0.5500000000000000444, 0.7853981633974510546 ) ;
#182 = EDGE_LOOP ( 'NONE', ( #152 ) ) ;
#183 = PERSON_AND_ORGANIZATION ( #218, #90 ) ;
#184 = EDGE_LOOP ( 'NONE', ( #190 ) ) ;
#185 = CC_DESIGN_PERSON_AND_ORGANIZATION_ASSIGNMENT ( #64, #206, ( #68 ) ) ;
#186 = DIRECTION ( 'NONE',  ( -3.491481338843133355E-15, 1.224646799147353207E-16, -1.000000000000000000 ) ) ;
#187 = CARTESIAN_POINT ( 'NONE',  ( 1.047444401652940007E-13, -3.673940397442059178E-15, 30.00000000000000000 ) ) ;
#188 = CIRCLE ( 'NONE', #36, 0.7499999999999977796 ) ;
#189 = CC_DESIGN_APPROVAL ( #163, ( #20 ) ) ;
#190 = ORIENTED_EDGE ( 'NONE', *, *, #148, .T. ) ;
#191 = DIRECTION ( 'NONE',  ( 0.0000000000000000000, 1.000000000000000000, 0.0000000000000000000 ) ) ;
#192 = APPROVAL ( #179, 'UNSPECIFIED' ) ;
#193 = CARTESIAN_POINT ( 'NONE',  ( 0.0000000000000000000, 0.0000000000000000000, 0.0000000000000000000 ) ) ;
#194 = COORDINATED_UNIVERSAL_TIME_OFFSET ( 1, 0, .AHEAD. ) ;
#195 = PRODUCT_RELATED_PRODUCT_CATEGORY ( 'detail', '', ( #103 ) ) ;
#196 = APPROVAL_STATUS ( 'not_yet_approved' ) ;
#197 = APPROVAL_DATE_TIME ( #89, #166 ) ;
#198 = CALENDAR_DATE ( 2021, 8, 10 ) ;
#199 = APPROVAL_PERSON_ORGANIZATION ( #215, #166, #113 ) ;
#200 = SECURITY_CLASSIFICATION_LEVEL ( 'unclassified' ) ;
#201 = UNCERTAINTY_MEASURE_WITH_UNIT (LENGTH_MEASURE( 1.000000000000000082E-05 ), #162, 'distance_accuracy_value', 'NONE');
#202 = PERSON_AND_ORGANIZATION ( #218, #90 ) ;
#203 = CIRCLE ( 'NONE', #80, 0.6899999999999985034 ) ;
#204 = ADVANCED_FACE ( 'NONE', ( #209 ), #149, .F. ) ;
#205 = DATE_AND_TIME ( #138, #53 ) ;
#206 = PERSON_AND_ORGANIZATION_ROLE ( 'creator' ) ;
#207 = CC_DESIGN_DATE_AND_TIME_ASSIGNMENT ( #48, #214, ( #31 ) ) ;
#208 = CARTESIAN_POINT ( 'NONE',  ( 3.910459099504309358E-14, -1.371604415045035513E-15, 11.19999999999999929 ) ) ;
#209 = FACE_OUTER_BOUND ( 'NONE', #165, .T. ) ;
#210 = EDGE_LOOP ( 'NONE', ( #135 ) ) ;
#211 = CC_DESIGN_PERSON_AND_ORGANIZATION_ASSIGNMENT ( #202, #94, ( #68 ) ) ;
#212 = DIRECTION ( 'NONE',  ( 0.0000000000000000000, -1.000000000000000000, 0.0000000000000000000 ) ) ;
#213 = FACE_OUTER_BOUND ( 'NONE', #170, .T. ) ;
#214 = DATE_TIME_ROLE ( 'creation_date' ) ;
#215 = PERSON_AND_ORGANIZATION ( #218, #90 ) ;
#216 = MECHANICAL_CONTEXT ( 'NONE', #109, 'mechanical' ) ;
#217 = VERTEX_POINT ( 'NONE', #147 ) ;
#218 = PERSON ( 'UNSPECIFIED', 'UNSPECIFIED', 'UNSPECIFIED', ('UNSPECIFIED'), ('UNSPECIFIED'), ('UNSPECIFIED') ) ;
#219 = APPROVAL_DATE_TIME ( #145, #192 ) ;
#220 = CIRCLE ( 'NONE', #106, 0.5500000000000000444 ) ;
#221 = APPROVAL_DATE_TIME ( #15, #163 ) ;
#222 = EDGE_LOOP ( 'NONE', ( #51 ) ) ;
#223 = AXIS2_PLACEMENT_3D ( 'NONE', #173, #98, #54 ) ;
ENDSEC;
END-ISO-10303-21;
