ISO-10303-21;
HEADER;
FILE_DESCRIPTION (( 'STEP AP203' ),
    '1' );
FILE_NAME ('55389.step',
    '2021-10-08T05:15:20',
    ( '' ),
    ( '' ),
    'SwSTEP 2.0',
    'SolidWorks 2019',
    '' );
FILE_SCHEMA (( 'CONFIG_CONTROL_DESIGN' ));
ENDSEC;

DATA;
#1 = PERSON_AND_ORGANIZATION ( #42, #184 ) ;
#2 = LOCAL_TIME ( 7, 15, 20.00000000000000000, #191 ) ;
#3 = DATE_AND_TIME ( #140, #135 ) ;
#4 = APPROVAL_DATE_TIME ( #180, #87 ) ;
#5 = PERSON_AND_ORGANIZATION ( #42, #184 ) ;
#6 = APPROVAL_DATE_TIME ( #118, #83 ) ;
#7 = DIRECTION ( 'NONE',  ( -5.623153122298509901E-31, -1.000000000000000000, -1.582776894139425644E-16 ) ) ;
#8 = CARTESIAN_POINT ( 'NONE',  ( 3.910459099504309358E-14, 5.136677255616845064E-33, 11.19999999999999929 ) ) ;
#9 = PLANE ( 'NONE',  #85 ) ;
#10 = DIRECTION ( 'NONE',  ( 0.0000000000000000000, 1.000000000000000000, 0.0000000000000000000 ) ) ;
#11 = CARTESIAN_POINT ( 'NONE',  ( 1.040461438975253740E-13, -3.649447461459112464E-15, 29.80000000000000071 ) ) ;
#12 = AXIS2_PLACEMENT_3D ( 'NONE', #173, #37, #176 ) ;
#13 = DIRECTION ( 'NONE',  ( 0.0000000000000000000, 0.0000000000000000000, 1.000000000000000000 ) ) ;
#14 = CC_DESIGN_APPROVAL ( #87, ( #209 ) ) ;
#15 = PERSON_AND_ORGANIZATION_ROLE ( 'classification_officer' ) ;
#16 = CALENDAR_DATE ( 2021, 8, 10 ) ;
#17 = EDGE_LOOP ( 'NONE', ( #213 ) ) ;
#18 = ORIENTED_EDGE ( 'NONE', *, *, #128, .T. ) ;
#19 = CIRCLE ( 'NONE', #90, 0.7499999999999998890 ) ;
#20 = ORIENTED_EDGE ( 'NONE', *, *, #168, .F. ) ;
#21 = ADVANCED_FACE ( 'NONE', ( #72 ), #9, .F. ) ;
#22 = DIRECTION ( 'NONE',  ( 3.491481338843133355E-15, -1.224646799147353207E-16, 1.000000000000000000 ) ) ;
#23 = CIRCLE ( 'NONE', #71, 0.6850000000000003864 ) ;
#24 = LOCAL_TIME ( 7, 15, 20.00000000000000000, #28 ) ;
#25 = DIRECTION ( 'NONE',  ( -3.491481338843133355E-15, 1.224646799147353207E-16, -1.000000000000000000 ) ) ;
#26 = DIRECTION ( 'NONE',  ( 0.0000000000000000000, 1.000000000000000000, 0.0000000000000000000 ) ) ;
#27 = CYLINDRICAL_SURFACE ( 'NONE', #134, 0.7499999999999987788 ) ;
#28 = COORDINATED_UNIVERSAL_TIME_OFFSET ( 1, 0, .AHEAD. ) ;
#29 = CC_DESIGN_DATE_AND_TIME_ASSIGNMENT ( #3, #207, ( #177 ) ) ;
#30 = DATE_AND_TIME ( #164, #2 ) ;
#31 = CIRCLE ( 'NONE', #215, 0.5500000000000000444 ) ;
#32 = EDGE_CURVE ( 'NONE', #155, #155, #33, .T. ) ;
#33 = CIRCLE ( 'NONE', #46, 0.6849999999999986100 ) ;
#34 = DIRECTION ( 'NONE',  ( -4.275831445896958607E-31, -1.000000000000000000, -1.224646799147353207E-16 ) ) ;
#35 = ADVANCED_FACE ( 'NONE', ( #147 ), #192, .T. ) ;
#36 = AXIS2_PLACEMENT_3D ( 'NONE', #223, #116, #114 ) ;
#37 = DIRECTION ( 'NONE',  ( -3.491481338843133355E-15, 1.224646799147353207E-16, -1.000000000000000000 ) ) ;
#38 = CARTESIAN_POINT ( 'NONE',  ( 3.910459099504309358E-14, 0.6849999999999989431, 11.19999999999999929 ) ) ;
#39 = ADVANCED_FACE ( 'NONE', ( #182 ), #212, .T. ) ;
#40 = DIRECTION ( 'NONE',  ( -3.491481338843133355E-15, 1.224646799147353207E-16, -1.000000000000000000 ) ) ;
#41 = DIRECTION ( 'NONE',  ( 0.0000000000000000000, 1.000000000000000000, 0.0000000000000000000 ) ) ;
#42 = PERSON ( 'UNSPECIFIED', 'UNSPECIFIED', 'UNSPECIFIED', ('UNSPECIFIED'), ('UNSPECIFIED'), ('UNSPECIFIED') ) ;
#43 = CALENDAR_DATE ( 2021, 8, 10 ) ;
#44 = PERSON_AND_ORGANIZATION ( #42, #184 ) ;
#45 = PRODUCT ( '55389', '55389', '', ( #178 ) ) ;
#46 = AXIS2_PLACEMENT_3D ( 'NONE', #69, #93, #55 ) ;
#47 = CC_DESIGN_PERSON_AND_ORGANIZATION_ASSIGNMENT ( #139, #123, ( #45 ) ) ;
#48 = DATE_TIME_ROLE ( 'classification_date' ) ;
#49 = SHAPE_DEFINITION_REPRESENTATION ( #202, #86 ) ;
#50 = EDGE_LOOP ( 'NONE', ( #194 ) ) ;
#51 = AXIS2_PLACEMENT_3D ( 'NONE', #220, #79, #201 ) ;
#52 = EDGE_LOOP ( 'NONE', ( #73 ) ) ;
#53 = ORIENTED_EDGE ( 'NONE', *, *, #32, .T. ) ;
#54 = ADVANCED_FACE ( 'NONE', ( #91, #214 ), #67, .T. ) ;
#55 = DIRECTION ( 'NONE',  ( 5.623153122298509901E-31, 1.000000000000000000, 1.582776894139425644E-16 ) ) ;
#56 = APPLICATION_PROTOCOL_DEFINITION ( 'international standard', 'config_control_design', 1994, #162 ) ;
#57 = DIRECTION ( 'NONE',  ( -3.491481338843133355E-15, 1.224646799147353207E-16, -1.000000000000000000 ) ) ;
#58 = CARTESIAN_POINT ( 'NONE',  ( 1.047444401652940007E-13, 0.5499999999999963807, 30.00000000000000000 ) ) ;
#59 = UNCERTAINTY_MEASURE_WITH_UNIT (LENGTH_MEASURE( 1.000000000000000082E-05 ), #158, 'distance_accuracy_value', 'NONE');
#60 = VERTEX_POINT ( 'NONE', #58 ) ;
#61 = FACE_OUTER_BOUND ( 'NONE', #150, .T. ) ;
#62 = CONICAL_SURFACE ( 'NONE', #151, 0.5500000000000000444, 0.7853981633974510546 ) ;
#63 = CALENDAR_DATE ( 2021, 8, 10 ) ;
#64 = LOCAL_TIME ( 7, 15, 20.00000000000000000, #210 ) ;
#65 = CARTESIAN_POINT ( 'NONE',  ( 0.0000000000000000000, 0.0000000000000000000, 0.0000000000000000000 ) ) ;
#66 = PERSON_AND_ORGANIZATION_ROLE ( 'creator' ) ;
#67 = CONICAL_SURFACE ( 'NONE', #170, 0.7499999999999977796, 0.5235987755982943748 ) ;
#68 = APPLICATION_PROTOCOL_DEFINITION ( 'international standard', 'config_control_design', 1994, #175 ) ;
#69 = CARTESIAN_POINT ( 'NONE',  ( 1.437057142427628172E-15, -5.040517931706768324E-17, 0.4115895240338824923 ) ) ;
#70 = CC_DESIGN_PERSON_AND_ORGANIZATION_ASSIGNMENT ( #44, #66, ( #177 ) ) ;
#71 = AXIS2_PLACEMENT_3D ( 'NONE', #219, #96, #26 ) ;
#72 = FACE_OUTER_BOUND ( 'NONE', #74, .T. ) ;
#73 = ORIENTED_EDGE ( 'NONE', *, *, #32, .F. ) ;
#74 = EDGE_LOOP ( 'NONE', ( #197 ) ) ;
#75 = DIRECTION ( 'NONE',  ( 0.0000000000000000000, 1.000000000000000000, 0.0000000000000000000 ) ) ;
#76 = CYLINDRICAL_SURFACE ( 'NONE', #51, 0.6849999999999994982 ) ;
#77 = FACE_OUTER_BOUND ( 'NONE', #196, .T. ) ;
#78 = VERTEX_POINT ( 'NONE', #98 ) ;
#79 = DIRECTION ( 'NONE',  ( -3.491481338843133355E-15, 1.224646799147353207E-16, -1.000000000000000000 ) ) ;
#80 = PERSON_AND_ORGANIZATION ( #42, #184 ) ;
#81 = PERSON_AND_ORGANIZATION_ROLE ( 'design_supplier' ) ;
#82 = DIRECTION ( 'NONE',  ( 1.000000000000000000, 0.0000000000000000000, 0.0000000000000000000 ) ) ;
#83 = APPROVAL ( #119, 'UNSPECIFIED' ) ;
#84 = APPROVAL_ROLE ( '' ) ;
#85 = AXIS2_PLACEMENT_3D ( 'NONE', #181, #165, #130 ) ;
#86 = ADVANCED_BREP_SHAPE_REPRESENTATION ( '55389', ( #185, #109, #157 ), #156 ) ;
#87 = APPROVAL ( #122, 'UNSPECIFIED' ) ;
#88 = ORIENTED_EDGE ( 'NONE', *, *, #168, .T. ) ;
#89 = ORIENTED_EDGE ( 'NONE', *, *, #128, .F. ) ;
#90 = AXIS2_PLACEMENT_3D ( 'NONE', #11, #172, #10 ) ;
#91 = FACE_BOUND ( 'NONE', #126, .T. ) ;
#92 = APPROVAL ( #121, 'UNSPECIFIED' ) ;
#93 = DIRECTION ( 'NONE',  ( -3.491481338843133355E-15, 1.224646799147353207E-16, -1.000000000000000000 ) ) ;
#94 = DIRECTION ( 'NONE',  ( 0.0000000000000000000, -1.000000000000000000, 0.0000000000000000000 ) ) ;
#95 = CARTESIAN_POINT ( 'NONE',  ( 3.910459099504309358E-14, -1.371604415045035513E-15, 11.19999999999999929 ) ) ;
#96 = DIRECTION ( 'NONE',  ( -3.491481338843133355E-15, 1.224646799147353207E-16, -1.000000000000000000 ) ) ;
#97 = DIRECTION ( 'NONE',  ( -3.491481338843133355E-15, 1.224646799147353207E-16, -1.000000000000000000 ) ) ;
#98 = CARTESIAN_POINT ( 'NONE',  ( 3.910459099504309358E-14, 0.6849999999999989431, 11.19999999999999929 ) ) ;
#99 = ADVANCED_FACE ( 'NONE', ( #169 ), #153, .F. ) ;
#100 =( NAMED_UNIT ( * ) SI_UNIT ( $, .STERADIAN. ) SOLID_ANGLE_UNIT ( ) );
#101 = PERSON_AND_ORGANIZATION_ROLE ( 'creator' ) ;
#102 = APPROVAL_DATE_TIME ( #30, #92 ) ;
#103 = PERSON_AND_ORGANIZATION ( #42, #184 ) ;
#104 = DATE_AND_TIME ( #63, #64 ) ;
#105 = AXIS2_PLACEMENT_3D ( 'NONE', #8, #127, #34 ) ;
#106 = CC_DESIGN_DATE_AND_TIME_ASSIGNMENT ( #104, #48, ( #209 ) ) ;
#107 = ORIENTED_EDGE ( 'NONE', *, *, #120, .T. ) ;
#108 = EDGE_LOOP ( 'NONE', ( #53 ) ) ;
#109 = MANIFOLD_SOLID_BREP ( 'Corps-Déplacer/Copier1[2]', #208 ) ;
#110 = ORIENTED_EDGE ( 'NONE', *, *, #113, .F. ) ;
#111 = CARTESIAN_POINT ( 'NONE',  ( 3.949767349475915021E-14, -1.385391893148458919E-15, 11.31258330249197286 ) ) ;
#112 = APPROVAL_PERSON_ORGANIZATION ( #80, #92, #159 ) ;
#113 = EDGE_CURVE ( 'NONE', #60, #60, #31, .T. ) ;
#114 = DIRECTION ( 'NONE',  ( 0.0000000000000000000, 1.000000000000000000, 0.0000000000000000000 ) ) ;
#115 =( NAMED_UNIT ( * ) PLANE_ANGLE_UNIT ( ) SI_UNIT ( $, .RADIAN. ) );
#116 = DIRECTION ( 'NONE',  ( -3.491481338843133355E-15, 1.224646799147353207E-16, -1.000000000000000000 ) ) ;
#117 = AXIS2_PLACEMENT_3D ( 'NONE', #95, #25, #41 ) ;
#118 = DATE_AND_TIME ( #16, #24 ) ;
#119 = APPROVAL_STATUS ( 'not_yet_approved' ) ;
#120 = EDGE_CURVE ( 'NONE', #78, #78, #144, .T. ) ;
#121 = APPROVAL_STATUS ( 'not_yet_approved' ) ;
#122 = APPROVAL_STATUS ( 'not_yet_approved' ) ;
#123 = PERSON_AND_ORGANIZATION_ROLE ( 'design_owner' ) ;
#124 = CC_DESIGN_PERSON_AND_ORGANIZATION_ASSIGNMENT ( #103, #15, ( #209 ) ) ;
#125 = ORIENTED_EDGE ( 'NONE', *, *, #160, .F. ) ;
#126 = EDGE_LOOP ( 'NONE', ( #125 ) ) ;
#127 = DIRECTION ( 'NONE',  ( 3.491481338843133355E-15, -1.224646799147353207E-16, 1.000000000000000000 ) ) ;
#128 = EDGE_CURVE ( 'NONE', #198, #198, #174, .T. ) ;
#129 = APPROVAL_PERSON_ORGANIZATION ( #5, #83, #84 ) ;
#130 = DIRECTION ( 'NONE',  ( -4.275831445896958607E-31, -1.000000000000000000, -1.224646799147353207E-16 ) ) ;
#131 = FACE_OUTER_BOUND ( 'NONE', #166, .T. ) ;
#132 = CC_DESIGN_PERSON_AND_ORGANIZATION_ASSIGNMENT ( #206, #101, ( #205 ) ) ;
#133 = DIRECTION ( 'NONE',  ( 4.275831445896959482E-31, 1.000000000000000000, 1.224646799147353207E-16 ) ) ;
#134 = AXIS2_PLACEMENT_3D ( 'NONE', #187, #97, #133 ) ;
#135 = LOCAL_TIME ( 7, 15, 20.00000000000000000, #142 ) ;
#136 = VERTEX_POINT ( 'NONE', #38 ) ;
#137 = FACE_OUTER_BOUND ( 'NONE', #52, .T. ) ;
#138 = CC_DESIGN_APPROVAL ( #83, ( #177 ) ) ;
#139 = PERSON_AND_ORGANIZATION ( #42, #184 ) ;
#140 = CALENDAR_DATE ( 2021, 8, 10 ) ;
#141 = AXIS2_PLACEMENT_3D ( 'NONE', #149, #145, #7 ) ;
#142 = COORDINATED_UNIVERSAL_TIME_OFFSET ( 1, 0, .AHEAD. ) ;
#143 = ADVANCED_FACE ( 'NONE', ( #131, #186 ), #62, .T. ) ;
#144 = CIRCLE ( 'NONE', #117, 0.6850000000000003864 ) ;
#145 = DIRECTION ( 'NONE',  ( 3.491481338843133355E-15, -1.224646799147353207E-16, 1.000000000000000000 ) ) ;
#146 = CC_DESIGN_SECURITY_CLASSIFICATION ( #209, ( #205 ) ) ;
#147 = FACE_OUTER_BOUND ( 'NONE', #108, .T. ) ;
#148 = ADVANCED_FACE ( 'NONE', ( #137, #171 ), #76, .T. ) ;
#149 = CARTESIAN_POINT ( 'NONE',  ( 1.437057142427628172E-15, -5.040517931706768324E-17, 0.4115895240338824923 ) ) ;
#150 = EDGE_LOOP ( 'NONE', ( #88 ) ) ;
#151 = AXIS2_PLACEMENT_3D ( 'NONE', #188, #57, #154 ) ;
#152 = CC_DESIGN_PERSON_AND_ORGANIZATION_ASSIGNMENT ( #179, #81, ( #205 ) ) ;
#153 = PLANE ( 'NONE',  #12 ) ;
#154 = DIRECTION ( 'NONE',  ( 0.0000000000000000000, 1.000000000000000000, 0.0000000000000000000 ) ) ;
#155 = VERTEX_POINT ( 'NONE', #222 ) ;
#156 =( GEOMETRIC_REPRESENTATION_CONTEXT ( 3 ) GLOBAL_UNCERTAINTY_ASSIGNED_CONTEXT ( ( #59 ) ) GLOBAL_UNIT_ASSIGNED_CONTEXT ( ( #158, #115, #100 ) ) REPRESENTATION_CONTEXT ( 'NONE', 'WORKASPACE' ) );
#157 = AXIS2_PLACEMENT_3D ( 'NONE', #65, #13, #82 ) ;
#158 =( LENGTH_UNIT ( ) NAMED_UNIT ( * ) SI_UNIT ( .MILLI., .METRE. ) );
#159 = APPROVAL_ROLE ( '' ) ;
#160 = EDGE_CURVE ( 'NONE', #136, #136, #23, .T. ) ;
#161 = APPROVAL_ROLE ( '' ) ;
#162 = APPLICATION_CONTEXT ( 'configuration controlled 3d designs of mechanical parts and assemblies' ) ;
#163 = ADVANCED_FACE ( 'NONE', ( #77, #61 ), #27, .T. ) ;
#164 = CALENDAR_DATE ( 2021, 8, 10 ) ;
#165 = DIRECTION ( 'NONE',  ( 3.491481338843133355E-15, -1.224646799147353207E-16, 1.000000000000000000 ) ) ;
#166 = EDGE_LOOP ( 'NONE', ( #20 ) ) ;
#167 = EDGE_LOOP ( 'NONE', ( #110 ) ) ;
#168 = EDGE_CURVE ( 'NONE', #183, #183, #19, .T. ) ;
#169 = FACE_OUTER_BOUND ( 'NONE', #167, .T. ) ;
#170 = AXIS2_PLACEMENT_3D ( 'NONE', #111, #22, #94 ) ;
#171 = FACE_OUTER_BOUND ( 'NONE', #217, .T. ) ;
#172 = DIRECTION ( 'NONE',  ( -3.491481338843133355E-15, 1.224646799147353207E-16, -1.000000000000000000 ) ) ;
#173 = CARTESIAN_POINT ( 'NONE',  ( 1.047444401652940007E-13, 4.124339402320052999E-33, 30.00000000000000000 ) ) ;
#174 = CIRCLE ( 'NONE', #36, 0.7499999999999977796 ) ;
#175 = APPLICATION_CONTEXT ( 'configuration controlled 3d designs of mechanical parts and assemblies' ) ;
#176 = DIRECTION ( 'NONE',  ( 4.275831445896958607E-31, 1.000000000000000000, 1.224646799147353207E-16 ) ) ;
#177 = PRODUCT_DEFINITION ( 'UNKNOWN', '', #205, #218 ) ;
#178 = MECHANICAL_CONTEXT ( 'NONE', #162, 'mechanical' ) ;
#179 = PERSON_AND_ORGANIZATION ( #42, #184 ) ;
#180 = DATE_AND_TIME ( #43, #200 ) ;
#181 = CARTESIAN_POINT ( 'NONE',  ( 3.910459099504309358E-14, 5.136677255616845064E-33, 11.19999999999999929 ) ) ;
#182 = FACE_OUTER_BOUND ( 'NONE', #50, .T. ) ;
#183 = VERTEX_POINT ( 'NONE', #203 ) ;
#184 = ORGANIZATION ( 'UNSPECIFIED', 'UNSPECIFIED', '' ) ;
#185 = MANIFOLD_SOLID_BREP ( 'Corps-Déplacer/Copier1[1]', #204 ) ;
#186 = FACE_BOUND ( 'NONE', #17, .T. ) ;
#187 = CARTESIAN_POINT ( 'NONE',  ( 0.0000000000000000000, 0.0000000000000000000, 0.0000000000000000000 ) ) ;
#188 = CARTESIAN_POINT ( 'NONE',  ( 1.047444401652940007E-13, -3.673940397442059178E-15, 30.00000000000000000 ) ) ;
#189 = CARTESIAN_POINT ( 'NONE',  ( 3.949767349475915021E-14, 0.7499999999999963363, 11.31258330249197286 ) ) ;
#190 = SECURITY_CLASSIFICATION_LEVEL ( 'unclassified' ) ;
#191 = COORDINATED_UNIVERSAL_TIME_OFFSET ( 1, 0, .AHEAD. ) ;
#192 = CONICAL_SURFACE ( 'NONE', #141, 0.6849999999999986100, 1.029744258676649649 ) ;
#193 = COORDINATED_UNIVERSAL_TIME_OFFSET ( 1, 0, .AHEAD. ) ;
#194 = ORIENTED_EDGE ( 'NONE', *, *, #120, .F. ) ;
#195 = EDGE_LOOP ( 'NONE', ( #18 ) ) ;
#196 = EDGE_LOOP ( 'NONE', ( #89 ) ) ;
#197 = ORIENTED_EDGE ( 'NONE', *, *, #160, .T. ) ;
#198 = VERTEX_POINT ( 'NONE', #189 ) ;
#199 = CARTESIAN_POINT ( 'NONE',  ( 1.047444401652940007E-13, -3.673940397442059178E-15, 30.00000000000000000 ) ) ;
#200 = LOCAL_TIME ( 7, 15, 20.00000000000000000, #193 ) ;
#201 = DIRECTION ( 'NONE',  ( 4.275831445896958607E-31, 1.000000000000000000, 1.224646799147353207E-16 ) ) ;
#202 = PRODUCT_DEFINITION_SHAPE ( 'NONE', 'NONE',  #177 ) ;
#203 = CARTESIAN_POINT ( 'NONE',  ( 1.040461438975253740E-13, 0.7499999999999962252, 29.80000000000000071 ) ) ;
#204 = CLOSED_SHELL ( 'NONE', ( #21, #54, #163, #143, #99 ) ) ;
#205 = PRODUCT_DEFINITION_FORMATION_WITH_SPECIFIED_SOURCE ( 'ANY', '', #45, .NOT_KNOWN. ) ;
#206 = PERSON_AND_ORGANIZATION ( #42, #184 ) ;
#207 = DATE_TIME_ROLE ( 'creation_date' ) ;
#208 = CLOSED_SHELL ( 'NONE', ( #35, #148, #39 ) ) ;
#209 = SECURITY_CLASSIFICATION ( '', '', #190 ) ;
#210 = COORDINATED_UNIVERSAL_TIME_OFFSET ( 1, 0, .AHEAD. ) ;
#211 = CC_DESIGN_APPROVAL ( #92, ( #205 ) ) ;
#212 = PLANE ( 'NONE',  #105 ) ;
#213 = ORIENTED_EDGE ( 'NONE', *, *, #113, .T. ) ;
#214 = FACE_OUTER_BOUND ( 'NONE', #195, .T. ) ;
#215 = AXIS2_PLACEMENT_3D ( 'NONE', #199, #40, #75 ) ;
#216 = APPROVAL_PERSON_ORGANIZATION ( #1, #87, #161 ) ;
#217 = EDGE_LOOP ( 'NONE', ( #107 ) ) ;
#218 = DESIGN_CONTEXT ( 'detailed design', #175, 'design' ) ;
#219 = CARTESIAN_POINT ( 'NONE',  ( 3.910459099504309358E-14, -1.371604415045035513E-15, 11.19999999999999929 ) ) ;
#220 = CARTESIAN_POINT ( 'NONE',  ( 0.0000000000000000000, 0.0000000000000000000, 0.0000000000000000000 ) ) ;
#221 = PRODUCT_RELATED_PRODUCT_CATEGORY ( 'detail', '', ( #45 ) ) ;
#222 = CARTESIAN_POINT ( 'NONE',  ( 1.437057142427628566E-15, 0.6849999999999986100, 0.4115895240338826033 ) ) ;
#223 = CARTESIAN_POINT ( 'NONE',  ( 3.949767349475915021E-14, -1.385391893148458919E-15, 11.31258330249197286 ) ) ;
ENDSEC;
END-ISO-10303-21;
