ISO-10303-21;
HEADER;
FILE_DESCRIPTION (( 'STEP AP203' ),
    '1' );
FILE_NAME ('55388.step',
    '2021-10-08T05:15:19',
    ( '' ),
    ( '' ),
    'SwSTEP 2.0',
    'SolidWorks 2019',
    '' );
FILE_SCHEMA (( 'CONFIG_CONTROL_DESIGN' ));
ENDSEC;

DATA;
#1 = APPROVAL ( #45, 'UNSPECIFIED' ) ;
#2 = DATE_AND_TIME ( #62, #63 ) ;
#3 = CARTESIAN_POINT ( 'NONE',  ( 1.047444401652940007E-13, -3.673940397442059178E-15, 30.00000000000000000 ) ) ;
#4 = FACE_OUTER_BOUND ( 'NONE', #66, .T. ) ;
#5 = FACE_OUTER_BOUND ( 'NONE', #14, .T. ) ;
#6 = DIRECTION ( 'NONE',  ( -3.491481338843133355E-15, 1.224646799147353207E-16, -1.000000000000000000 ) ) ;
#7 = PLANE ( 'NONE',  #216 ) ;
#8 = DATE_AND_TIME ( #114, #148 ) ;
#9 = PERSON_AND_ORGANIZATION ( #188, #211 ) ;
#10 = DATE_TIME_ROLE ( 'creation_date' ) ;
#11 = CLOSED_SHELL ( 'NONE', ( #171, #215, #92 ) ) ;
#12 =( GEOMETRIC_REPRESENTATION_CONTEXT ( 3 ) GLOBAL_UNCERTAINTY_ASSIGNED_CONTEXT ( ( #100 ) ) GLOBAL_UNIT_ASSIGNED_CONTEXT ( ( #149, #144, #26 ) ) REPRESENTATION_CONTEXT ( 'NONE', 'WORKASPACE' ) );
#13 = CARTESIAN_POINT ( 'NONE',  ( 1.047444401652940007E-13, 0.5499999999999963807, 30.00000000000000000 ) ) ;
#14 = EDGE_LOOP ( 'NONE', ( #50 ) ) ;
#15 = AXIS2_PLACEMENT_3D ( 'NONE', #3, #137, #56 ) ;
#16 = APPROVAL_ROLE ( '' ) ;
#17 = ORIENTED_EDGE ( 'NONE', *, *, #108, .T. ) ;
#18 = DIRECTION ( 'NONE',  ( -4.275831445896958607E-31, -1.000000000000000000, -1.224646799147353207E-16 ) ) ;
#19 = APPROVAL_PERSON_ORGANIZATION ( #61, #48, #44 ) ;
#20 = ADVANCED_FACE ( 'NONE', ( #132, #157 ), #58, .T. ) ;
#21 = DIRECTION ( 'NONE',  ( 4.275831445896958607E-31, 1.000000000000000000, 1.224646799147353207E-16 ) ) ;
#22 = DIRECTION ( 'NONE',  ( 3.491481338843133355E-15, -1.224646799147353207E-16, 1.000000000000000000 ) ) ;
#23 = DIRECTION ( 'NONE',  ( -3.491481338843133355E-15, 1.224646799147353207E-16, -1.000000000000000000 ) ) ;
#24 = EDGE_CURVE ( 'NONE', #37, #37, #35, .T. ) ;
#25 = DIRECTION ( 'NONE',  ( -4.275831445896958607E-31, -1.000000000000000000, -1.224646799147353207E-16 ) ) ;
#26 =( NAMED_UNIT ( * ) SI_UNIT ( $, .STERADIAN. ) SOLID_ANGLE_UNIT ( ) );
#27 = APPLICATION_PROTOCOL_DEFINITION ( 'international standard', 'config_control_design', 1994, #197 ) ;
#28 = APPLICATION_CONTEXT ( 'configuration controlled 3d designs of mechanical parts and assemblies' ) ;
#29 = ADVANCED_FACE ( 'NONE', ( #196, #51 ), #115, .T. ) ;
#30 = EDGE_LOOP ( 'NONE', ( #151 ) ) ;
#31 = PRODUCT_DEFINITION_SHAPE ( 'NONE', 'NONE',  #141 ) ;
#32 = COORDINATED_UNIVERSAL_TIME_OFFSET ( 1, 0, .AHEAD. ) ;
#33 = DIRECTION ( 'NONE',  ( -3.491481338843133355E-15, 1.224646799147353207E-16, -1.000000000000000000 ) ) ;
#34 = PRODUCT_RELATED_PRODUCT_CATEGORY ( 'detail', '', ( #52 ) ) ;
#35 = CIRCLE ( 'NONE', #193, 0.7499999999999998890 ) ;
#36 = FACE_OUTER_BOUND ( 'NONE', #103, .T. ) ;
#37 = VERTEX_POINT ( 'NONE', #91 ) ;
#38 = DIRECTION ( 'NONE',  ( 3.491481338843133355E-15, -1.224646799147353207E-16, 1.000000000000000000 ) ) ;
#39 = PLANE ( 'NONE',  #47 ) ;
#40 = ADVANCED_BREP_SHAPE_REPRESENTATION ( '55388', ( #113, #190, #194 ), #12 ) ;
#41 = PERSON_AND_ORGANIZATION_ROLE ( 'creator' ) ;
#42 = CONICAL_SURFACE ( 'NONE', #201, 0.6799999999999986056, 1.029744258676649649 ) ;
#43 = APPROVAL_PERSON_ORGANIZATION ( #129, #1, #81 ) ;
#44 = APPROVAL_ROLE ( '' ) ;
#45 = APPROVAL_STATUS ( 'not_yet_approved' ) ;
#46 = CC_DESIGN_PERSON_AND_ORGANIZATION_ASSIGNMENT ( #163, #164, ( #141 ) ) ;
#47 = AXIS2_PLACEMENT_3D ( 'NONE', #110, #23, #21 ) ;
#48 = APPROVAL ( #117, 'UNSPECIFIED' ) ;
#49 = EDGE_LOOP ( 'NONE', ( #121 ) ) ;
#50 = ORIENTED_EDGE ( 'NONE', *, *, #64, .F. ) ;
#51 = FACE_BOUND ( 'NONE', #208, .T. ) ;
#52 = PRODUCT ( '55388', '55388', '', ( #180 ) ) ;
#53 = CARTESIAN_POINT ( 'NONE',  ( 0.0000000000000000000, 0.0000000000000000000, 0.0000000000000000000 ) ) ;
#54 = CC_DESIGN_PERSON_AND_ORGANIZATION_ASSIGNMENT ( #99, #159, ( #52 ) ) ;
#55 = CARTESIAN_POINT ( 'NONE',  ( 3.952791061012192525E-14, 0.7499999999999963363, 11.32124355652981862 ) ) ;
#56 = DIRECTION ( 'NONE',  ( 0.0000000000000000000, 1.000000000000000000, 0.0000000000000000000 ) ) ;
#57 = CARTESIAN_POINT ( 'NONE',  ( 3.910459099504309989E-14, 0.6800000000000000488, 11.20000000000000107 ) ) ;
#58 = CONICAL_SURFACE ( 'NONE', #186, 0.7499999999999977796, 0.5235987755982913772 ) ;
#59 = APPROVAL_DATE_TIME ( #217, #48 ) ;
#60 = EDGE_CURVE ( 'NONE', #156, #156, #160, .T. ) ;
#61 = PERSON_AND_ORGANIZATION ( #188, #211 ) ;
#62 = CALENDAR_DATE ( 2021, 8, 10 ) ;
#63 = LOCAL_TIME ( 7, 15, 19.00000000000000000, #166 ) ;
#64 = EDGE_CURVE ( 'NONE', #77, #77, #136, .T. ) ;
#65 = CARTESIAN_POINT ( 'NONE',  ( 3.910459099504309989E-14, 0.6800000000000000488, 11.20000000000000107 ) ) ;
#66 = EDGE_LOOP ( 'NONE', ( #223 ) ) ;
#67 = CC_DESIGN_APPROVAL ( #1, ( #182 ) ) ;
#68 = ORIENTED_EDGE ( 'NONE', *, *, #97, .F. ) ;
#69 = CC_DESIGN_PERSON_AND_ORGANIZATION_ASSIGNMENT ( #219, #185, ( #125 ) ) ;
#70 = DATE_AND_TIME ( #222, #161 ) ;
#71 = APPROVAL ( #205, 'UNSPECIFIED' ) ;
#72 = CARTESIAN_POINT ( 'NONE',  ( 1.426567674234725494E-15, -5.003725830015477050E-17, 0.4085852209387446088 ) ) ;
#73 = CARTESIAN_POINT ( 'NONE',  ( 3.910459099504309989E-14, -2.073431719650264034E-31, 11.20000000000000107 ) ) ;
#74 = FACE_OUTER_BOUND ( 'NONE', #189, .T. ) ;
#75 = DIRECTION ( 'NONE',  ( 0.0000000000000000000, 1.000000000000000000, 0.0000000000000000000 ) ) ;
#76 = CYLINDRICAL_SURFACE ( 'NONE', #220, 0.7499999999999987788 ) ;
#77 = VERTEX_POINT ( 'NONE', #96 ) ;
#78 = AXIS2_PLACEMENT_3D ( 'NONE', #73, #90, #18 ) ;
#79 = AXIS2_PLACEMENT_3D ( 'NONE', #53, #143, #195 ) ;
#80 = PERSON_AND_ORGANIZATION_ROLE ( 'design_supplier' ) ;
#81 = APPROVAL_ROLE ( '' ) ;
#82 = DESIGN_CONTEXT ( 'detailed design', #28, 'design' ) ;
#83 = VERTEX_POINT ( 'NONE', #65 ) ;
#84 = CLOSED_SHELL ( 'NONE', ( #130, #20, #184, #29, #101 ) ) ;
#85 = PERSON_AND_ORGANIZATION ( #188, #211 ) ;
#86 = ORIENTED_EDGE ( 'NONE', *, *, #60, .T. ) ;
#87 = ORIENTED_EDGE ( 'NONE', *, *, #97, .T. ) ;
#88 = LOCAL_TIME ( 7, 15, 19.00000000000000000, #200 ) ;
#89 = CARTESIAN_POINT ( 'NONE',  ( 0.0000000000000000000, 0.0000000000000000000, 0.0000000000000000000 ) ) ;
#90 = DIRECTION ( 'NONE',  ( 3.491481338843133355E-15, -1.224646799147353207E-16, 1.000000000000000000 ) ) ;
#91 = CARTESIAN_POINT ( 'NONE',  ( 1.040461438975253740E-13, 0.7499999999999962252, 29.80000000000000071 ) ) ;
#92 = ADVANCED_FACE ( 'NONE', ( #36 ), #7, .T. ) ;
#93 = AXIS2_PLACEMENT_3D ( 'NONE', #154, #6, #75 ) ;
#94 = CARTESIAN_POINT ( 'NONE',  ( 1.047444401652940007E-13, -3.673940397442059178E-15, 30.00000000000000000 ) ) ;
#95 = FACE_OUTER_BOUND ( 'NONE', #49, .T. ) ;
#96 = CARTESIAN_POINT ( 'NONE',  ( 1.426567674234725889E-15, 0.6799999999999986056, 0.4085852209387447198 ) ) ;
#97 = EDGE_CURVE ( 'NONE', #98, #98, #139, .T. ) ;
#98 = VERTEX_POINT ( 'NONE', #13 ) ;
#99 = PERSON_AND_ORGANIZATION ( #188, #211 ) ;
#100 = UNCERTAINTY_MEASURE_WITH_UNIT (LENGTH_MEASURE( 1.000000000000000082E-05 ), #149, 'distance_accuracy_value', 'NONE');
#101 = ADVANCED_FACE ( 'NONE', ( #177 ), #39, .F. ) ;
#102 = ORIENTED_EDGE ( 'NONE', *, *, #64, .T. ) ;
#103 = EDGE_LOOP ( 'NONE', ( #153 ) ) ;
#104 = CIRCLE ( 'NONE', #174, 0.6800000000000014921 ) ;
#105 = CC_DESIGN_PERSON_AND_ORGANIZATION_ASSIGNMENT ( #145, #41, ( #182 ) ) ;
#106 = DIRECTION ( 'NONE',  ( 0.0000000000000000000, 1.000000000000000000, 0.0000000000000000000 ) ) ;
#107 = CARTESIAN_POINT ( 'NONE',  ( 1.426567674234725494E-15, -5.003725830015477050E-17, 0.4085852209387446088 ) ) ;
#108 = EDGE_CURVE ( 'NONE', #181, #181, #173, .T. ) ;
#109 = FACE_OUTER_BOUND ( 'NONE', #207, .T. ) ;
#110 = CARTESIAN_POINT ( 'NONE',  ( 1.047444401652940007E-13, 4.124339402320052999E-33, 30.00000000000000000 ) ) ;
#111 = DIRECTION ( 'NONE',  ( 0.0000000000000000000, 1.000000000000000000, 0.0000000000000000000 ) ) ;
#112 = CARTESIAN_POINT ( 'NONE',  ( 0.0000000000000000000, 0.0000000000000000000, 0.0000000000000000000 ) ) ;
#113 = MANIFOLD_SOLID_BREP ( 'Corps-Déplacer/Copier1[1]', #84 ) ;
#114 = CALENDAR_DATE ( 2021, 8, 10 ) ;
#115 = CONICAL_SURFACE ( 'NONE', #15, 0.5500000000000000444, 0.7853981633974510546 ) ;
#116 = APPLICATION_PROTOCOL_DEFINITION ( 'international standard', 'config_control_design', 1994, #28 ) ;
#117 = APPROVAL_STATUS ( 'not_yet_approved' ) ;
#118 = APPROVAL_DATE_TIME ( #8, #1 ) ;
#119 = LOCAL_TIME ( 7, 15, 19.00000000000000000, #128 ) ;
#120 = ORIENTED_EDGE ( 'NONE', *, *, #24, .F. ) ;
#121 = ORIENTED_EDGE ( 'NONE', *, *, #191, .T. ) ;
#122 = DIRECTION ( 'NONE',  ( -3.491481338843133355E-15, 1.224646799147353207E-16, -1.000000000000000000 ) ) ;
#123 = PLANE ( 'NONE',  #78 ) ;
#124 = AXIS2_PLACEMENT_3D ( 'NONE', #138, #122, #213 ) ;
#125 = SECURITY_CLASSIFICATION ( '', '', #146 ) ;
#126 = DIRECTION ( 'NONE',  ( -3.491481338843133355E-15, 1.224646799147353207E-16, -1.000000000000000000 ) ) ;
#127 = DIRECTION ( 'NONE',  ( 3.491481338843133355E-15, -1.224646799147353207E-16, 1.000000000000000000 ) ) ;
#128 = COORDINATED_UNIVERSAL_TIME_OFFSET ( 1, 0, .AHEAD. ) ;
#129 = PERSON_AND_ORGANIZATION ( #188, #211 ) ;
#130 = ADVANCED_FACE ( 'NONE', ( #95 ), #123, .F. ) ;
#131 = CC_DESIGN_DATE_AND_TIME_ASSIGNMENT ( #162, #10, ( #141 ) ) ;
#132 = FACE_BOUND ( 'NONE', #30, .T. ) ;
#133 = APPROVAL_PERSON_ORGANIZATION ( #85, #71, #16 ) ;
#134 = SHAPE_DEFINITION_REPRESENTATION ( #31, #40 ) ;
#135 = EDGE_LOOP ( 'NONE', ( #86 ) ) ;
#136 = CIRCLE ( 'NONE', #221, 0.6799999999999986056 ) ;
#137 = DIRECTION ( 'NONE',  ( -3.491481338843133355E-15, 1.224646799147353207E-16, -1.000000000000000000 ) ) ;
#138 = CARTESIAN_POINT ( 'NONE',  ( 3.910459099504309989E-14, -1.371604415045035710E-15, 11.20000000000000107 ) ) ;
#139 = CIRCLE ( 'NONE', #168, 0.5500000000000000444 ) ;
#140 = DIRECTION ( 'NONE',  ( -3.491481338843133355E-15, 1.224646799147353207E-16, -1.000000000000000000 ) ) ;
#141 = PRODUCT_DEFINITION ( 'UNKNOWN', '', #182, #82 ) ;
#142 = CARTESIAN_POINT ( 'NONE',  ( 1.040461438975253740E-13, -3.649447461459112464E-15, 29.80000000000000071 ) ) ;
#143 = DIRECTION ( 'NONE',  ( -3.491481338843133355E-15, 1.224646799147353207E-16, -1.000000000000000000 ) ) ;
#144 =( NAMED_UNIT ( * ) PLANE_ANGLE_UNIT ( ) SI_UNIT ( $, .RADIAN. ) );
#145 = PERSON_AND_ORGANIZATION ( #188, #211 ) ;
#146 = SECURITY_CLASSIFICATION_LEVEL ( 'unclassified' ) ;
#147 = COORDINATED_UNIVERSAL_TIME_OFFSET ( 1, 0, .AHEAD. ) ;
#148 = LOCAL_TIME ( 7, 15, 19.00000000000000000, #147 ) ;
#149 =( LENGTH_UNIT ( ) NAMED_UNIT ( * ) SI_UNIT ( .MILLI., .METRE. ) );
#150 = ORIENTED_EDGE ( 'NONE', *, *, #60, .F. ) ;
#151 = ORIENTED_EDGE ( 'NONE', *, *, #191, .F. ) ;
#152 = APPROVAL_DATE_TIME ( #70, #71 ) ;
#153 = ORIENTED_EDGE ( 'NONE', *, *, #108, .F. ) ;
#154 = CARTESIAN_POINT ( 'NONE',  ( 3.952791061012192525E-14, -1.386452468387183963E-15, 11.32124355652981862 ) ) ;
#155 = DIRECTION ( 'NONE',  ( -5.664499836433058579E-31, -1.000000000000000000, -1.594414959537509885E-16 ) ) ;
#156 = VERTEX_POINT ( 'NONE', #55 ) ;
#157 = FACE_OUTER_BOUND ( 'NONE', #135, .T. ) ;
#158 = DIRECTION ( 'NONE',  ( 4.275831445896959482E-31, 1.000000000000000000, 1.224646799147353207E-16 ) ) ;
#159 = PERSON_AND_ORGANIZATION_ROLE ( 'design_owner' ) ;
#160 = CIRCLE ( 'NONE', #93, 0.7499999999999977796 ) ;
#161 = LOCAL_TIME ( 7, 15, 19.00000000000000000, #32 ) ;
#162 = DATE_AND_TIME ( #202, #88 ) ;
#163 = PERSON_AND_ORGANIZATION ( #188, #211 ) ;
#164 = PERSON_AND_ORGANIZATION_ROLE ( 'creator' ) ;
#165 = CC_DESIGN_DATE_AND_TIME_ASSIGNMENT ( #2, #204, ( #125 ) ) ;
#166 = COORDINATED_UNIVERSAL_TIME_OFFSET ( 1, 0, .AHEAD. ) ;
#167 = CC_DESIGN_SECURITY_CLASSIFICATION ( #125, ( #182 ) ) ;
#168 = AXIS2_PLACEMENT_3D ( 'NONE', #94, #209, #176 ) ;
#169 = EDGE_LOOP ( 'NONE', ( #68 ) ) ;
#170 = EDGE_LOOP ( 'NONE', ( #102 ) ) ;
#171 = ADVANCED_FACE ( 'NONE', ( #172 ), #42, .T. ) ;
#172 = FACE_OUTER_BOUND ( 'NONE', #170, .T. ) ;
#173 = CIRCLE ( 'NONE', #124, 0.6800000000000014921 ) ;
#174 = AXIS2_PLACEMENT_3D ( 'NONE', #210, #126, #111 ) ;
#175 = CARTESIAN_POINT ( 'NONE',  ( 3.952791061012192525E-14, -1.386452468387183963E-15, 11.32124355652981862 ) ) ;
#176 = DIRECTION ( 'NONE',  ( 0.0000000000000000000, 1.000000000000000000, 0.0000000000000000000 ) ) ;
#177 = FACE_OUTER_BOUND ( 'NONE', #169, .T. ) ;
#178 = CC_DESIGN_APPROVAL ( #48, ( #141 ) ) ;
#179 = DIRECTION ( 'NONE',  ( 5.664499836433058579E-31, 1.000000000000000000, 1.594414959537509885E-16 ) ) ;
#180 = MECHANICAL_CONTEXT ( 'NONE', #197, 'mechanical' ) ;
#181 = VERTEX_POINT ( 'NONE', #57 ) ;
#182 = PRODUCT_DEFINITION_FORMATION_WITH_SPECIFIED_SOURCE ( 'ANY', '', #52, .NOT_KNOWN. ) ;
#183 = DIRECTION ( 'NONE',  ( 1.000000000000000000, 0.0000000000000000000, 0.0000000000000000000 ) ) ;
#184 = ADVANCED_FACE ( 'NONE', ( #109, #4 ), #76, .T. ) ;
#185 = PERSON_AND_ORGANIZATION_ROLE ( 'classification_officer' ) ;
#186 = AXIS2_PLACEMENT_3D ( 'NONE', #175, #127, #192 ) ;
#187 = EDGE_LOOP ( 'NONE', ( #120 ) ) ;
#188 = PERSON ( 'UNSPECIFIED', 'UNSPECIFIED', 'UNSPECIFIED', ('UNSPECIFIED'), ('UNSPECIFIED'), ('UNSPECIFIED') ) ;
#189 = EDGE_LOOP ( 'NONE', ( #17 ) ) ;
#190 = MANIFOLD_SOLID_BREP ( 'Corps-Déplacer/Copier1[2]', #11 ) ;
#191 = EDGE_CURVE ( 'NONE', #83, #83, #104, .T. ) ;
#192 = DIRECTION ( 'NONE',  ( 0.0000000000000000000, -1.000000000000000000, 0.0000000000000000000 ) ) ;
#193 = AXIS2_PLACEMENT_3D ( 'NONE', #142, #140, #106 ) ;
#194 = AXIS2_PLACEMENT_3D ( 'NONE', #112, #218, #183 ) ;
#195 = DIRECTION ( 'NONE',  ( 4.275831445896958607E-31, 1.000000000000000000, 1.224646799147353207E-16 ) ) ;
#196 = FACE_OUTER_BOUND ( 'NONE', #187, .T. ) ;
#197 = APPLICATION_CONTEXT ( 'configuration controlled 3d designs of mechanical parts and assemblies' ) ;
#198 = DIRECTION ( 'NONE',  ( -3.491481338843133355E-15, 1.224646799147353207E-16, -1.000000000000000000 ) ) ;
#199 = CALENDAR_DATE ( 2021, 8, 10 ) ;
#200 = COORDINATED_UNIVERSAL_TIME_OFFSET ( 1, 0, .AHEAD. ) ;
#201 = AXIS2_PLACEMENT_3D ( 'NONE', #107, #22, #155 ) ;
#202 = CALENDAR_DATE ( 2021, 8, 10 ) ;
#203 = CC_DESIGN_APPROVAL ( #71, ( #125 ) ) ;
#204 = DATE_TIME_ROLE ( 'classification_date' ) ;
#205 = APPROVAL_STATUS ( 'not_yet_approved' ) ;
#206 = CC_DESIGN_PERSON_AND_ORGANIZATION_ASSIGNMENT ( #9, #80, ( #182 ) ) ;
#207 = EDGE_LOOP ( 'NONE', ( #150 ) ) ;
#208 = EDGE_LOOP ( 'NONE', ( #87 ) ) ;
#209 = DIRECTION ( 'NONE',  ( -3.491481338843133355E-15, 1.224646799147353207E-16, -1.000000000000000000 ) ) ;
#210 = CARTESIAN_POINT ( 'NONE',  ( 3.910459099504309989E-14, -1.371604415045035710E-15, 11.20000000000000107 ) ) ;
#211 = ORGANIZATION ( 'UNSPECIFIED', 'UNSPECIFIED', '' ) ;
#212 = CYLINDRICAL_SURFACE ( 'NONE', #79, 0.6800000000000000488 ) ;
#213 = DIRECTION ( 'NONE',  ( 0.0000000000000000000, 1.000000000000000000, 0.0000000000000000000 ) ) ;
#214 = CARTESIAN_POINT ( 'NONE',  ( 3.910459099504309989E-14, -2.073431719650264034E-31, 11.20000000000000107 ) ) ;
#215 = ADVANCED_FACE ( 'NONE', ( #5, #74 ), #212, .T. ) ;
#216 = AXIS2_PLACEMENT_3D ( 'NONE', #214, #38, #25 ) ;
#217 = DATE_AND_TIME ( #199, #119 ) ;
#218 = DIRECTION ( 'NONE',  ( 0.0000000000000000000, 0.0000000000000000000, 1.000000000000000000 ) ) ;
#219 = PERSON_AND_ORGANIZATION ( #188, #211 ) ;
#220 = AXIS2_PLACEMENT_3D ( 'NONE', #89, #198, #158 ) ;
#221 = AXIS2_PLACEMENT_3D ( 'NONE', #72, #33, #179 ) ;
#222 = CALENDAR_DATE ( 2021, 8, 10 ) ;
#223 = ORIENTED_EDGE ( 'NONE', *, *, #24, .T. ) ;
ENDSEC;
END-ISO-10303-21;
