ISO-10303-21;
HEADER;
FILE_DESCRIPTION (( 'STEP AP203' ),
    '1' );
FILE_NAME ('55387.step',
    '2021-10-08T05:15:19',
    ( '' ),
    ( '' ),
    'SwSTEP 2.0',
    'SolidWorks 2019',
    '' );
FILE_SCHEMA (( 'CONFIG_CONTROL_DESIGN' ));
ENDSEC;

DATA;
#1 = CC_DESIGN_PERSON_AND_ORGANIZATION_ASSIGNMENT ( #168, #41, ( #119 ) ) ;
#2 = PERSON_AND_ORGANIZATION ( #120, #7 ) ;
#3 = CC_DESIGN_APPROVAL ( #82, ( #59 ) ) ;
#4 = CARTESIAN_POINT ( 'NONE',  ( 3.910459099504308727E-14, 2.175040444925604726E-31, 11.19999999999999751 ) ) ;
#5 = ADVANCED_FACE ( 'NONE', ( #109, #78 ), #115, .T. ) ;
#6 = DIRECTION ( 'NONE',  ( 0.0000000000000000000, 1.000000000000000000, 0.0000000000000000000 ) ) ;
#7 = ORGANIZATION ( 'UNSPECIFIED', 'UNSPECIFIED', '' ) ;
#8 = EDGE_LOOP ( 'NONE', ( #160 ) ) ;
#9 = ORIENTED_EDGE ( 'NONE', *, *, #17, .T. ) ;
#10 = PLANE ( 'NONE',  #46 ) ;
#11 = AXIS2_PLACEMENT_3D ( 'NONE', #43, #113, #89 ) ;
#12 = CARTESIAN_POINT ( 'NONE',  ( 1.416078206041823211E-15, -4.966933728324187009E-17, 0.4055809178436068363 ) ) ;
#13 = ADVANCED_FACE ( 'NONE', ( #178, #179 ), #125, .T. ) ;
#14 = AXIS2_PLACEMENT_3D ( 'NONE', #110, #112, #177 ) ;
#15 =( GEOMETRIC_REPRESENTATION_CONTEXT ( 3 ) GLOBAL_UNCERTAINTY_ASSIGNED_CONTEXT ( ( #187 ) ) GLOBAL_UNIT_ASSIGNED_CONTEXT ( ( #164, #197, #66 ) ) REPRESENTATION_CONTEXT ( 'NONE', 'WORKASPACE' ) );
#16 = APPLICATION_CONTEXT ( 'configuration controlled 3d designs of mechanical parts and assemblies' ) ;
#17 = EDGE_CURVE ( 'NONE', #118, #118, #106, .T. ) ;
#18 = PERSON_AND_ORGANIZATION ( #120, #7 ) ;
#19 = DATE_AND_TIME ( #121, #104 ) ;
#20 = CIRCLE ( 'NONE', #169, 0.6749999999999990452 ) ;
#21 = AXIS2_PLACEMENT_3D ( 'NONE', #152, #69, #54 ) ;
#22 = DATE_TIME_ROLE ( 'creation_date' ) ;
#23 = EDGE_CURVE ( 'NONE', #185, #185, #58, .T. ) ;
#24 = DATE_AND_TIME ( #84, #219 ) ;
#25 = APPROVAL_STATUS ( 'not_yet_approved' ) ;
#26 = CLOSED_SHELL ( 'NONE', ( #175, #62, #196 ) ) ;
#27 = ADVANCED_FACE ( 'NONE', ( #47, #28 ), #182, .T. ) ;
#28 = FACE_BOUND ( 'NONE', #159, .T. ) ;
#29 = DIRECTION ( 'NONE',  ( 0.0000000000000000000, 1.000000000000000000, 0.0000000000000000000 ) ) ;
#30 = AXIS2_PLACEMENT_3D ( 'NONE', #99, #136, #201 ) ;
#31 = EDGE_LOOP ( 'NONE', ( #145 ) ) ;
#32 = CARTESIAN_POINT ( 'NONE',  ( 3.910459099504308727E-14, 0.6749999999999976019, 11.19999999999999751 ) ) ;
#33 = AXIS2_PLACEMENT_3D ( 'NONE', #48, #195, #61 ) ;
#34 = CARTESIAN_POINT ( 'NONE',  ( 1.416078206041823211E-15, -4.966933728324187009E-17, 0.4055809178436068363 ) ) ;
#35 = APPROVAL_ROLE ( '' ) ;
#36 = DIRECTION ( 'NONE',  ( -2.853229547240355186E-31, -1.000000000000000000, -1.606225440719269079E-16 ) ) ;
#37 = APPROVAL_DATE_TIME ( #144, #134 ) ;
#38 = CALENDAR_DATE ( 2021, 8, 10 ) ;
#39 = CC_DESIGN_APPROVAL ( #134, ( #119 ) ) ;
#40 = PERSON_AND_ORGANIZATION ( #120, #7 ) ;
#41 = PERSON_AND_ORGANIZATION_ROLE ( 'creator' ) ;
#42 = AXIS2_PLACEMENT_3D ( 'NONE', #94, #126, #6 ) ;
#43 = CARTESIAN_POINT ( 'NONE',  ( 3.955814772548470661E-14, -1.387513043625908810E-15, 11.32990381056766438 ) ) ;
#44 = CARTESIAN_POINT ( 'NONE',  ( 0.0000000000000000000, 0.0000000000000000000, 0.0000000000000000000 ) ) ;
#45 = DIRECTION ( 'NONE',  ( 0.0000000000000000000, 1.000000000000000000, 0.0000000000000000000 ) ) ;
#46 = AXIS2_PLACEMENT_3D ( 'NONE', #4, #151, #216 ) ;
#47 = FACE_OUTER_BOUND ( 'NONE', #63, .T. ) ;
#48 = CARTESIAN_POINT ( 'NONE',  ( 0.0000000000000000000, 0.0000000000000000000, 0.0000000000000000000 ) ) ;
#49 = FACE_OUTER_BOUND ( 'NONE', #90, .T. ) ;
#50 = AXIS2_PLACEMENT_3D ( 'NONE', #44, #65, #174 ) ;
#51 = VERTEX_POINT ( 'NONE', #68 ) ;
#52 = APPROVAL_PERSON_ORGANIZATION ( #116, #134, #35 ) ;
#53 = CARTESIAN_POINT ( 'NONE',  ( 3.910459099504308727E-14, 2.175040444925604726E-31, 11.19999999999999751 ) ) ;
#54 = DIRECTION ( 'NONE',  ( 0.0000000000000000000, 1.000000000000000000, 0.0000000000000000000 ) ) ;
#55 = APPROVAL_ROLE ( '' ) ;
#56 = CC_DESIGN_PERSON_AND_ORGANIZATION_ASSIGNMENT ( #40, #189, ( #59 ) ) ;
#57 = COORDINATED_UNIVERSAL_TIME_OFFSET ( 1, 0, .AHEAD. ) ;
#58 = CIRCLE ( 'NONE', #190, 0.5500000000000000444 ) ;
#59 = SECURITY_CLASSIFICATION ( '', '', #139 ) ;
#60 = ORIENTED_EDGE ( 'NONE', *, *, #157, .F. ) ;
#61 = DIRECTION ( 'NONE',  ( 4.275831445896959482E-31, 1.000000000000000000, 1.224646799147353207E-16 ) ) ;
#62 = ADVANCED_FACE ( 'NONE', ( #88, #93 ), #192, .T. ) ;
#63 = EDGE_LOOP ( 'NONE', ( #214 ) ) ;
#64 = FACE_OUTER_BOUND ( 'NONE', #128, .T. ) ;
#65 = DIRECTION ( 'NONE',  ( -3.491481338843133355E-15, 1.224646799147353207E-16, -1.000000000000000000 ) ) ;
#66 =( NAMED_UNIT ( * ) SI_UNIT ( $, .STERADIAN. ) SOLID_ANGLE_UNIT ( ) );
#67 = VERTEX_POINT ( 'NONE', #32 ) ;
#68 = CARTESIAN_POINT ( 'NONE',  ( 1.416078206041823408E-15, 0.6749999999999986011, 0.4055809178436069473 ) ) ;
#69 = DIRECTION ( 'NONE',  ( -3.491481338843133355E-15, 1.224646799147353207E-16, -1.000000000000000000 ) ) ;
#70 = DIRECTION ( 'NONE',  ( -3.491481338843133355E-15, 1.224646799147353207E-16, -1.000000000000000000 ) ) ;
#71 = DATE_TIME_ROLE ( 'classification_date' ) ;
#72 = CONICAL_SURFACE ( 'NONE', #153, 0.6749999999999986011, 1.029744258676649649 ) ;
#73 = CC_DESIGN_SECURITY_CLASSIFICATION ( #59, ( #202 ) ) ;
#74 = ORIENTED_EDGE ( 'NONE', *, *, #17, .F. ) ;
#75 = CARTESIAN_POINT ( 'NONE',  ( 3.910459099504308727E-14, -1.371604415045035316E-15, 11.19999999999999751 ) ) ;
#76 = EDGE_LOOP ( 'NONE', ( #9 ) ) ;
#77 = DIRECTION ( 'NONE',  ( -3.491481338843133355E-15, 1.224646799147353207E-16, -1.000000000000000000 ) ) ;
#78 = FACE_OUTER_BOUND ( 'NONE', #76, .T. ) ;
#79 = EDGE_CURVE ( 'NONE', #67, #67, #20, .T. ) ;
#80 = VERTEX_POINT ( 'NONE', #97 ) ;
#81 = FACE_OUTER_BOUND ( 'NONE', #131, .T. ) ;
#82 = APPROVAL ( #25, 'UNSPECIFIED' ) ;
#83 = CARTESIAN_POINT ( 'NONE',  ( 3.955814772548470661E-14, 0.7499999999999963363, 11.32990381056766438 ) ) ;
#84 = CALENDAR_DATE ( 2021, 8, 10 ) ;
#85 = CALENDAR_DATE ( 2021, 8, 10 ) ;
#86 = AXIS2_PLACEMENT_3D ( 'NONE', #114, #181, #221 ) ;
#87 = PERSON_AND_ORGANIZATION_ROLE ( 'design_supplier' ) ;
#88 = FACE_OUTER_BOUND ( 'NONE', #146, .T. ) ;
#89 = DIRECTION ( 'NONE',  ( 0.0000000000000000000, -1.000000000000000000, 0.0000000000000000000 ) ) ;
#90 = EDGE_LOOP ( 'NONE', ( #149 ) ) ;
#91 = CLOSED_SHELL ( 'NONE', ( #127, #5, #13, #27, #171 ) ) ;
#92 = APPROVAL_PERSON_ORGANIZATION ( #2, #82, #55 ) ;
#93 = FACE_OUTER_BOUND ( 'NONE', #148, .T. ) ;
#94 = CARTESIAN_POINT ( 'NONE',  ( 3.955814772548470661E-14, -1.387513043625908810E-15, 11.32990381056766438 ) ) ;
#95 = EDGE_CURVE ( 'NONE', #80, #80, #111, .T. ) ;
#96 = VERTEX_POINT ( 'NONE', #200 ) ;
#97 = CARTESIAN_POINT ( 'NONE',  ( 3.910459099504308727E-14, 0.6749999999999976019, 11.19999999999999751 ) ) ;
#98 = DIRECTION ( 'NONE',  ( 3.491481338843133355E-15, -1.224646799147353207E-16, 1.000000000000000000 ) ) ;
#99 = CARTESIAN_POINT ( 'NONE',  ( 1.047444401652940007E-13, 4.124339402320052999E-33, 30.00000000000000000 ) ) ;
#100 = DIRECTION ( 'NONE',  ( 3.491481338843133355E-15, -1.224646799147353207E-16, 1.000000000000000000 ) ) ;
#101 = SHAPE_DEFINITION_REPRESENTATION ( #161, #205 ) ;
#102 = CC_DESIGN_DATE_AND_TIME_ASSIGNMENT ( #19, #22, ( #119 ) ) ;
#103 = AXIS2_PLACEMENT_3D ( 'NONE', #162, #77, #163 ) ;
#104 = LOCAL_TIME ( 7, 15, 19.00000000000000000, #186 ) ;
#105 = CC_DESIGN_PERSON_AND_ORGANIZATION_ASSIGNMENT ( #18, #87, ( #202 ) ) ;
#106 = CIRCLE ( 'NONE', #42, 0.7499999999999977796 ) ;
#107 = MANIFOLD_SOLID_BREP ( 'Corps-Déplacer/Copier1[1]', #91 ) ;
#108 = ORIENTED_EDGE ( 'NONE', *, *, #79, .F. ) ;
#109 = FACE_BOUND ( 'NONE', #208, .T. ) ;
#110 = CARTESIAN_POINT ( 'NONE',  ( 1.047444401652940007E-13, -3.673940397442059178E-15, 30.00000000000000000 ) ) ;
#111 = CIRCLE ( 'NONE', #103, 0.6749999999999990452 ) ;
#112 = DIRECTION ( 'NONE',  ( -3.491481338843133355E-15, 1.224646799147353207E-16, -1.000000000000000000 ) ) ;
#113 = DIRECTION ( 'NONE',  ( 3.491481338843133355E-15, -1.224646799147353207E-16, 1.000000000000000000 ) ) ;
#114 = CARTESIAN_POINT ( 'NONE',  ( 0.0000000000000000000, 0.0000000000000000000, 0.0000000000000000000 ) ) ;
#115 = CONICAL_SURFACE ( 'NONE', #11, 0.7499999999999977796, 0.5235987755982914882 ) ;
#116 = PERSON_AND_ORGANIZATION ( #120, #7 ) ;
#117 = PLANE ( 'NONE',  #223 ) ;
#118 = VERTEX_POINT ( 'NONE', #83 ) ;
#119 = PRODUCT_DEFINITION ( 'UNKNOWN', '', #202, #207 ) ;
#120 = PERSON ( 'UNSPECIFIED', 'UNSPECIFIED', 'UNSPECIFIED', ('UNSPECIFIED'), ('UNSPECIFIED'), ('UNSPECIFIED') ) ;
#121 = CALENDAR_DATE ( 2021, 8, 10 ) ;
#122 = PERSON_AND_ORGANIZATION ( #120, #7 ) ;
#123 = DATE_AND_TIME ( #38, #206 ) ;
#124 = ORIENTED_EDGE ( 'NONE', *, *, #95, .T. ) ;
#125 = CYLINDRICAL_SURFACE ( 'NONE', #33, 0.7499999999999987788 ) ;
#126 = DIRECTION ( 'NONE',  ( -3.491481338843133355E-15, 1.224646799147353207E-16, -1.000000000000000000 ) ) ;
#127 = ADVANCED_FACE ( 'NONE', ( #64 ), #10, .F. ) ;
#128 = EDGE_LOOP ( 'NONE', ( #194 ) ) ;
#129 = PRODUCT ( '55387', '55387', '', ( #133 ) ) ;
#130 = CC_DESIGN_APPROVAL ( #213, ( #202 ) ) ;
#131 = EDGE_LOOP ( 'NONE', ( #211 ) ) ;
#132 = APPLICATION_PROTOCOL_DEFINITION ( 'international standard', 'config_control_design', 1994, #150 ) ;
#133 = MECHANICAL_CONTEXT ( 'NONE', #150, 'mechanical' ) ;
#134 = APPROVAL ( #184, 'UNSPECIFIED' ) ;
#135 = DIRECTION ( 'NONE',  ( 2.853229547240355186E-31, 1.000000000000000000, 1.606225440719269079E-16 ) ) ;
#136 = DIRECTION ( 'NONE',  ( -3.491481338843133355E-15, 1.224646799147353207E-16, -1.000000000000000000 ) ) ;
#137 = CIRCLE ( 'NONE', #21, 0.7499999999999998890 ) ;
#138 = APPROVAL_STATUS ( 'not_yet_approved' ) ;
#139 = SECURITY_CLASSIFICATION_LEVEL ( 'unclassified' ) ;
#140 = CC_DESIGN_PERSON_AND_ORGANIZATION_ASSIGNMENT ( #154, #217, ( #129 ) ) ;
#141 = COORDINATED_UNIVERSAL_TIME_OFFSET ( 1, 0, .AHEAD. ) ;
#142 = COORDINATED_UNIVERSAL_TIME_OFFSET ( 1, 0, .AHEAD. ) ;
#143 = LOCAL_TIME ( 7, 15, 19.00000000000000000, #203 ) ;
#144 = DATE_AND_TIME ( #170, #215 ) ;
#145 = ORIENTED_EDGE ( 'NONE', *, *, #95, .F. ) ;
#146 = EDGE_LOOP ( 'NONE', ( #60 ) ) ;
#147 = AXIS2_PLACEMENT_3D ( 'NONE', #12, #70, #135 ) ;
#148 = EDGE_LOOP ( 'NONE', ( #124 ) ) ;
#149 = ORIENTED_EDGE ( 'NONE', *, *, #23, .F. ) ;
#150 = APPLICATION_CONTEXT ( 'configuration controlled 3d designs of mechanical parts and assemblies' ) ;
#151 = DIRECTION ( 'NONE',  ( 3.491481338843133355E-15, -1.224646799147353207E-16, 1.000000000000000000 ) ) ;
#152 = CARTESIAN_POINT ( 'NONE',  ( 1.040461438975253740E-13, -3.649447461459112464E-15, 29.80000000000000071 ) ) ;
#153 = AXIS2_PLACEMENT_3D ( 'NONE', #34, #98, #36 ) ;
#154 = PERSON_AND_ORGANIZATION ( #120, #7 ) ;
#155 = APPROVAL_DATE_TIME ( #222, #213 ) ;
#156 = APPROVAL_DATE_TIME ( #123, #82 ) ;
#157 = EDGE_CURVE ( 'NONE', #51, #51, #183, .T. ) ;
#158 = DIRECTION ( 'NONE',  ( -3.491481338843133355E-15, 1.224646799147353207E-16, -1.000000000000000000 ) ) ;
#159 = EDGE_LOOP ( 'NONE', ( #209 ) ) ;
#160 = ORIENTED_EDGE ( 'NONE', *, *, #210, .T. ) ;
#161 = PRODUCT_DEFINITION_SHAPE ( 'NONE', 'NONE',  #119 ) ;
#162 = CARTESIAN_POINT ( 'NONE',  ( 3.910459099504308727E-14, -1.371604415045035316E-15, 11.19999999999999751 ) ) ;
#163 = DIRECTION ( 'NONE',  ( 0.0000000000000000000, 1.000000000000000000, 0.0000000000000000000 ) ) ;
#164 =( LENGTH_UNIT ( ) NAMED_UNIT ( * ) SI_UNIT ( .MILLI., .METRE. ) );
#165 = CARTESIAN_POINT ( 'NONE',  ( 1.047444401652940007E-13, 0.5499999999999963807, 30.00000000000000000 ) ) ;
#166 = CC_DESIGN_DATE_AND_TIME_ASSIGNMENT ( #24, #71, ( #59 ) ) ;
#167 = DIRECTION ( 'NONE',  ( -4.275831445896958607E-31, -1.000000000000000000, -1.224646799147353207E-16 ) ) ;
#168 = PERSON_AND_ORGANIZATION ( #120, #7 ) ;
#169 = AXIS2_PLACEMENT_3D ( 'NONE', #75, #212, #29 ) ;
#170 = CALENDAR_DATE ( 2021, 8, 10 ) ;
#171 = ADVANCED_FACE ( 'NONE', ( #49 ), #198, .F. ) ;
#172 = APPROVAL_ROLE ( '' ) ;
#173 = PRODUCT_RELATED_PRODUCT_CATEGORY ( 'detail', '', ( #129 ) ) ;
#174 = DIRECTION ( 'NONE',  ( 4.275831445896958607E-31, 1.000000000000000000, 1.224646799147353207E-16 ) ) ;
#175 = ADVANCED_FACE ( 'NONE', ( #81 ), #72, .T. ) ;
#176 = EDGE_LOOP ( 'NONE', ( #74 ) ) ;
#177 = DIRECTION ( 'NONE',  ( 0.0000000000000000000, 1.000000000000000000, 0.0000000000000000000 ) ) ;
#178 = FACE_OUTER_BOUND ( 'NONE', #176, .T. ) ;
#179 = FACE_OUTER_BOUND ( 'NONE', #8, .T. ) ;
#180 = MANIFOLD_SOLID_BREP ( 'Corps-Déplacer/Copier1[2]', #26 ) ;
#181 = DIRECTION ( 'NONE',  ( 0.0000000000000000000, 0.0000000000000000000, 1.000000000000000000 ) ) ;
#182 = CONICAL_SURFACE ( 'NONE', #14, 0.5500000000000000444, 0.7853981633974510546 ) ;
#183 = CIRCLE ( 'NONE', #147, 0.6749999999999986011 ) ;
#184 = APPROVAL_STATUS ( 'not_yet_approved' ) ;
#185 = VERTEX_POINT ( 'NONE', #165 ) ;
#186 = COORDINATED_UNIVERSAL_TIME_OFFSET ( 1, 0, .AHEAD. ) ;
#187 = UNCERTAINTY_MEASURE_WITH_UNIT (LENGTH_MEASURE( 1.000000000000000082E-05 ), #164, 'distance_accuracy_value', 'NONE');
#188 = PERSON_AND_ORGANIZATION ( #120, #7 ) ;
#189 = PERSON_AND_ORGANIZATION_ROLE ( 'classification_officer' ) ;
#190 = AXIS2_PLACEMENT_3D ( 'NONE', #193, #158, #45 ) ;
#191 = APPROVAL_PERSON_ORGANIZATION ( #188, #213, #172 ) ;
#192 = CYLINDRICAL_SURFACE ( 'NONE', #50, 0.6749999999999988232 ) ;
#193 = CARTESIAN_POINT ( 'NONE',  ( 1.047444401652940007E-13, -3.673940397442059178E-15, 30.00000000000000000 ) ) ;
#194 = ORIENTED_EDGE ( 'NONE', *, *, #79, .T. ) ;
#195 = DIRECTION ( 'NONE',  ( -3.491481338843133355E-15, 1.224646799147353207E-16, -1.000000000000000000 ) ) ;
#196 = ADVANCED_FACE ( 'NONE', ( #218 ), #117, .T. ) ;
#197 =( NAMED_UNIT ( * ) PLANE_ANGLE_UNIT ( ) SI_UNIT ( $, .RADIAN. ) );
#198 = PLANE ( 'NONE',  #30 ) ;
#199 = CC_DESIGN_PERSON_AND_ORGANIZATION_ASSIGNMENT ( #122, #204, ( #202 ) ) ;
#200 = CARTESIAN_POINT ( 'NONE',  ( 1.040461438975253740E-13, 0.7499999999999962252, 29.80000000000000071 ) ) ;
#201 = DIRECTION ( 'NONE',  ( 4.275831445896958607E-31, 1.000000000000000000, 1.224646799147353207E-16 ) ) ;
#202 = PRODUCT_DEFINITION_FORMATION_WITH_SPECIFIED_SOURCE ( 'ANY', '', #129, .NOT_KNOWN. ) ;
#203 = COORDINATED_UNIVERSAL_TIME_OFFSET ( 1, 0, .AHEAD. ) ;
#204 = PERSON_AND_ORGANIZATION_ROLE ( 'creator' ) ;
#205 = ADVANCED_BREP_SHAPE_REPRESENTATION ( '55387', ( #107, #180, #86 ), #15 ) ;
#206 = LOCAL_TIME ( 7, 15, 19.00000000000000000, #57 ) ;
#207 = DESIGN_CONTEXT ( 'detailed design', #16, 'design' ) ;
#208 = EDGE_LOOP ( 'NONE', ( #108 ) ) ;
#209 = ORIENTED_EDGE ( 'NONE', *, *, #23, .T. ) ;
#210 = EDGE_CURVE ( 'NONE', #96, #96, #137, .T. ) ;
#211 = ORIENTED_EDGE ( 'NONE', *, *, #157, .T. ) ;
#212 = DIRECTION ( 'NONE',  ( -3.491481338843133355E-15, 1.224646799147353207E-16, -1.000000000000000000 ) ) ;
#213 = APPROVAL ( #138, 'UNSPECIFIED' ) ;
#214 = ORIENTED_EDGE ( 'NONE', *, *, #210, .F. ) ;
#215 = LOCAL_TIME ( 7, 15, 19.00000000000000000, #141 ) ;
#216 = DIRECTION ( 'NONE',  ( -4.275831445896958607E-31, -1.000000000000000000, -1.224646799147353207E-16 ) ) ;
#217 = PERSON_AND_ORGANIZATION_ROLE ( 'design_owner' ) ;
#218 = FACE_OUTER_BOUND ( 'NONE', #31, .T. ) ;
#219 = LOCAL_TIME ( 7, 15, 19.00000000000000000, #142 ) ;
#220 = APPLICATION_PROTOCOL_DEFINITION ( 'international standard', 'config_control_design', 1994, #16 ) ;
#221 = DIRECTION ( 'NONE',  ( 1.000000000000000000, 0.0000000000000000000, 0.0000000000000000000 ) ) ;
#222 = DATE_AND_TIME ( #85, #143 ) ;
#223 = AXIS2_PLACEMENT_3D ( 'NONE', #53, #100, #167 ) ;
ENDSEC;
END-ISO-10303-21;
