ISO-10303-21;
HEADER;
FILE_DESCRIPTION (( 'STEP AP203' ),
    '1' );
FILE_NAME ('55386.step',
    '2021-10-08T05:15:18',
    ( '' ),
    ( '' ),
    'SwSTEP 2.0',
    'SolidWorks 2019',
    '' );
FILE_SCHEMA (( 'CONFIG_CONTROL_DESIGN' ));
ENDSEC;

DATA;
#1 = DIRECTION ( 'NONE',  ( -3.491481338843133355E-15, 1.224646799147353207E-16, -1.000000000000000000 ) ) ;
#2 = ADVANCED_FACE ( 'NONE', ( #142 ), #13, .T. ) ;
#3 = FACE_OUTER_BOUND ( 'NONE', #33, .T. ) ;
#4 = VERTEX_POINT ( 'NONE', #76 ) ;
#5 = FACE_OUTER_BOUND ( 'NONE', #171, .T. ) ;
#6 = APPROVAL_PERSON_ORGANIZATION ( #223, #24, #167 ) ;
#7 = ADVANCED_FACE ( 'NONE', ( #54, #175 ), #136, .T. ) ;
#8 = DIRECTION ( 'NONE',  ( 0.0000000000000000000, 1.000000000000000000, 0.0000000000000000000 ) ) ;
#9 = APPLICATION_PROTOCOL_DEFINITION ( 'international standard', 'config_control_design', 1994, #208 ) ;
#10 = CC_DESIGN_DATE_AND_TIME_ASSIGNMENT ( #116, #85, ( #189 ) ) ;
#11 = PERSON_AND_ORGANIZATION_ROLE ( 'classification_officer' ) ;
#12 = APPROVAL_DATE_TIME ( #15, #24 ) ;
#13 = CONICAL_SURFACE ( 'NONE', #186, 0.6699999999999936007, 1.029744258676649649 ) ;
#14 = EDGE_LOOP ( 'NONE', ( #44 ) ) ;
#15 = DATE_AND_TIME ( #154, #31 ) ;
#16 = PRODUCT_DEFINITION_SHAPE ( 'NONE', 'NONE',  #189 ) ;
#17 = ORIENTED_EDGE ( 'NONE', *, *, #107, .T. ) ;
#18 = PERSON ( 'UNSPECIFIED', 'UNSPECIFIED', 'UNSPECIFIED', ('UNSPECIFIED'), ('UNSPECIFIED'), ('UNSPECIFIED') ) ;
#19 = CC_DESIGN_DATE_AND_TIME_ASSIGNMENT ( #48, #134, ( #138 ) ) ;
#20 = ADVANCED_FACE ( 'NONE', ( #100 ), #173, .T. ) ;
#21 = AXIS2_PLACEMENT_3D ( 'NONE', #56, #57, #94 ) ;
#22 = DIRECTION ( 'NONE',  ( 0.0000000000000000000, 1.000000000000000000, 0.0000000000000000000 ) ) ;
#23 = EDGE_CURVE ( 'NONE', #92, #92, #122, .T. ) ;
#24 = APPROVAL ( #65, 'UNSPECIFIED' ) ;
#25 = MANIFOLD_SOLID_BREP ( 'Corps-Déplacer/Copier1[2]', #45 ) ;
#26 = PERSON_AND_ORGANIZATION ( #18, #59 ) ;
#27 = COORDINATED_UNIVERSAL_TIME_OFFSET ( 1, 0, .AHEAD. ) ;
#28 = ORIENTED_EDGE ( 'NONE', *, *, #212, .F. ) ;
#29 = SECURITY_CLASSIFICATION_LEVEL ( 'unclassified' ) ;
#30 =( NAMED_UNIT ( * ) PLANE_ANGLE_UNIT ( ) SI_UNIT ( $, .RADIAN. ) );
#31 = LOCAL_TIME ( 7, 15, 18.00000000000000000, #166 ) ;
#32 = APPLICATION_CONTEXT ( 'configuration controlled 3d designs of mechanical parts and assemblies' ) ;
#33 = EDGE_LOOP ( 'NONE', ( #198 ) ) ;
#34 = AXIS2_PLACEMENT_3D ( 'NONE', #42, #139, #192 ) ;
#35 = LOCAL_TIME ( 7, 15, 18.00000000000000000, #27 ) ;
#36 = DIRECTION ( 'NONE',  ( -3.491481338843133355E-15, 1.224646799147353207E-16, -1.000000000000000000 ) ) ;
#37 = DIRECTION ( 'NONE',  ( -3.491481338843133355E-15, 1.224646799147353207E-16, -1.000000000000000000 ) ) ;
#38 = AXIS2_PLACEMENT_3D ( 'NONE', #191, #71, #41 ) ;
#39 = CIRCLE ( 'NONE', #203, 0.6699999999999940448 ) ;
#40 = PERSON_AND_ORGANIZATION ( #18, #59 ) ;
#41 = DIRECTION ( 'NONE',  ( 4.275831445896958607E-31, 1.000000000000000000, 1.224646799147353207E-16 ) ) ;
#42 = CARTESIAN_POINT ( 'NONE',  ( 0.0000000000000000000, 0.0000000000000000000, 0.0000000000000000000 ) ) ;
#43 = SHAPE_DEFINITION_REPRESENTATION ( #16, #125 ) ;
#44 = ORIENTED_EDGE ( 'NONE', *, *, #23, .T. ) ;
#45 = CLOSED_SHELL ( 'NONE', ( #2, #7, #20 ) ) ;
#46 = APPROVAL_PERSON_ORGANIZATION ( #204, #50, #119 ) ;
#47 = EDGE_LOOP ( 'NONE', ( #135 ) ) ;
#48 = DATE_AND_TIME ( #155, #35 ) ;
#49 = DIRECTION ( 'NONE',  ( -4.275831445896958607E-31, -1.000000000000000000, -1.224646799147353207E-16 ) ) ;
#50 = APPROVAL ( #170, 'UNSPECIFIED' ) ;
#51 = PERSON_AND_ORGANIZATION_ROLE ( 'design_supplier' ) ;
#52 = CARTESIAN_POINT ( 'NONE',  ( 1.040461438975253740E-13, -3.649447461459112464E-15, 29.80000000000000071 ) ) ;
#53 = AXIS2_PLACEMENT_3D ( 'NONE', #199, #118, #49 ) ;
#54 = FACE_OUTER_BOUND ( 'NONE', #146, .T. ) ;
#55 = CARTESIAN_POINT ( 'NONE',  ( 1.405588737848910278E-15, -4.930141626632859990E-17, 0.4025766147484659552 ) ) ;
#56 = CARTESIAN_POINT ( 'NONE',  ( 1.047444401652940007E-13, 4.124339402320052999E-33, 30.00000000000000000 ) ) ;
#57 = DIRECTION ( 'NONE',  ( -3.491481338843133355E-15, 1.224646799147353207E-16, -1.000000000000000000 ) ) ;
#58 = EDGE_LOOP ( 'NONE', ( #17 ) ) ;
#59 = ORGANIZATION ( 'UNSPECIFIED', 'UNSPECIFIED', '' ) ;
#60 = CARTESIAN_POINT ( 'NONE',  ( 3.910459099504308727E-14, -1.371604415045035316E-15, 11.19999999999999751 ) ) ;
#61 = ADVANCED_FACE ( 'NONE', ( #93, #3 ), #89, .T. ) ;
#62 = ADVANCED_FACE ( 'NONE', ( #97, #63 ), #151, .T. ) ;
#63 = FACE_BOUND ( 'NONE', #64, .T. ) ;
#64 = EDGE_LOOP ( 'NONE', ( #127 ) ) ;
#65 = APPROVAL_STATUS ( 'not_yet_approved' ) ;
#66 = CARTESIAN_POINT ( 'NONE',  ( 3.910459099504308727E-14, 2.174665504979938793E-31, 11.19999999999999751 ) ) ;
#67 = ORIENTED_EDGE ( 'NONE', *, *, #23, .F. ) ;
#68 = FACE_OUTER_BOUND ( 'NONE', #58, .T. ) ;
#69 = DIRECTION ( 'NONE',  ( 3.491481338843133355E-15, -1.224646799147353207E-16, 1.000000000000000000 ) ) ;
#70 = APPROVAL_DATE_TIME ( #185, #50 ) ;
#71 = DIRECTION ( 'NONE',  ( -3.491481338843133355E-15, 1.224646799147353207E-16, -1.000000000000000000 ) ) ;
#72 = CC_DESIGN_PERSON_AND_ORGANIZATION_ASSIGNMENT ( #172, #201, ( #143 ) ) ;
#73 = ORIENTED_EDGE ( 'NONE', *, *, #195, .T. ) ;
#74 = ORIENTED_EDGE ( 'NONE', *, *, #195, .F. ) ;
#75 = CARTESIAN_POINT ( 'NONE',  ( 1.047444401652940007E-13, -3.673940397442059178E-15, 30.00000000000000000 ) ) ;
#76 = CARTESIAN_POINT ( 'NONE',  ( 1.040461438975253740E-13, 0.7499999999999962252, 29.80000000000000071 ) ) ;
#77 = AXIS2_PLACEMENT_3D ( 'NONE', #196, #126, #177 ) ;
#78 = PLANE ( 'NONE',  #53 ) ;
#79 = PRODUCT_RELATED_PRODUCT_CATEGORY ( 'detail', '', ( #143 ) ) ;
#80 = DIRECTION ( 'NONE',  ( 0.0000000000000000000, 1.000000000000000000, 0.0000000000000000000 ) ) ;
#81 = LOCAL_TIME ( 7, 15, 18.00000000000000000, #124 ) ;
#82 = COORDINATED_UNIVERSAL_TIME_OFFSET ( 1, 0, .AHEAD. ) ;
#83 = DIRECTION ( 'NONE',  ( -4.275831445896958607E-31, -1.000000000000000000, -1.224646799147353207E-16 ) ) ;
#84 = CALENDAR_DATE ( 2021, 8, 10 ) ;
#85 = DATE_TIME_ROLE ( 'creation_date' ) ;
#86 = CC_DESIGN_SECURITY_CLASSIFICATION ( #138, ( #123 ) ) ;
#87 = MECHANICAL_CONTEXT ( 'NONE', #208, 'mechanical' ) ;
#88 = ADVANCED_FACE ( 'NONE', ( #98 ), #90, .F. ) ;
#89 = CYLINDRICAL_SURFACE ( 'NONE', #137, 0.7499999999999987788 ) ;
#90 = PLANE ( 'NONE',  #21 ) ;
#91 = AXIS2_PLACEMENT_3D ( 'NONE', #140, #215, #181 ) ;
#92 = VERTEX_POINT ( 'NONE', #218 ) ;
#93 = FACE_OUTER_BOUND ( 'NONE', #47, .T. ) ;
#94 = DIRECTION ( 'NONE',  ( 4.275831445896958607E-31, 1.000000000000000000, 1.224646799147353207E-16 ) ) ;
#95 = DIRECTION ( 'NONE',  ( -2.874522305055603534E-31, -1.000000000000000000, -1.618212197739574413E-16 ) ) ;
#96 = DIRECTION ( 'NONE',  ( 4.275831445896959482E-31, 1.000000000000000000, 1.224646799147353207E-16 ) ) ;
#97 = FACE_OUTER_BOUND ( 'NONE', #109, .T. ) ;
#98 = FACE_OUTER_BOUND ( 'NONE', #159, .T. ) ;
#99 = PERSON_AND_ORGANIZATION_ROLE ( 'creator' ) ;
#100 = FACE_OUTER_BOUND ( 'NONE', #163, .T. ) ;
#101 = APPROVAL_STATUS ( 'not_yet_approved' ) ;
#102 = CC_DESIGN_APPROVAL ( #50, ( #123 ) ) ;
#103 = UNCERTAINTY_MEASURE_WITH_UNIT (LENGTH_MEASURE( 1.000000000000000082E-05 ), #161, 'distance_accuracy_value', 'NONE');
#104 = CC_DESIGN_PERSON_AND_ORGANIZATION_ASSIGNMENT ( #205, #99, ( #123 ) ) ;
#105 = ORIENTED_EDGE ( 'NONE', *, *, #145, .F. ) ;
#106 = ORIENTED_EDGE ( 'NONE', *, *, #145, .T. ) ;
#107 = EDGE_CURVE ( 'NONE', #179, #179, #128, .T. ) ;
#108 = MANIFOLD_SOLID_BREP ( 'Corps-Déplacer/Copier1[1]', #150 ) ;
#109 = EDGE_LOOP ( 'NONE', ( #28 ) ) ;
#110 = AXIS2_PLACEMENT_3D ( 'NONE', #52, #37, #209 ) ;
#111 = DIRECTION ( 'NONE',  ( 3.491481338843133355E-15, -1.224646799147353207E-16, 1.000000000000000000 ) ) ;
#112 = VERTEX_POINT ( 'NONE', #162 ) ;
#113 = APPROVAL ( #101, 'UNSPECIFIED' ) ;
#114 = DIRECTION ( 'NONE',  ( -3.491481338843133355E-15, 1.224646799147353207E-16, -1.000000000000000000 ) ) ;
#115 = AXIS2_PLACEMENT_3D ( 'NONE', #148, #69, #121 ) ;
#116 = DATE_AND_TIME ( #141, #214 ) ;
#117 = VERTEX_POINT ( 'NONE', #158 ) ;
#118 = DIRECTION ( 'NONE',  ( 3.491481338843133355E-15, -1.224646799147353207E-16, 1.000000000000000000 ) ) ;
#119 = APPROVAL_ROLE ( '' ) ;
#120 = DIRECTION ( 'NONE',  ( 3.491481338843133355E-15, -1.224646799147353207E-16, 1.000000000000000000 ) ) ;
#121 = DIRECTION ( 'NONE',  ( 0.0000000000000000000, -1.000000000000000000, 0.0000000000000000000 ) ) ;
#122 = CIRCLE ( 'NONE', #77, 0.6699999999999936007 ) ;
#123 = PRODUCT_DEFINITION_FORMATION_WITH_SPECIFIED_SOURCE ( 'ANY', '', #143, .NOT_KNOWN. ) ;
#124 = COORDINATED_UNIVERSAL_TIME_OFFSET ( 1, 0, .AHEAD. ) ;
#125 = ADVANCED_BREP_SHAPE_REPRESENTATION ( '55386', ( #108, #25, #34 ), #187 ) ;
#126 = DIRECTION ( 'NONE',  ( -3.491481338843133355E-15, 1.224646799147353207E-16, -1.000000000000000000 ) ) ;
#127 = ORIENTED_EDGE ( 'NONE', *, *, #174, .T. ) ;
#128 = CIRCLE ( 'NONE', #153, 0.7499999999999977796 ) ;
#129 = DIRECTION ( 'NONE',  ( -3.491481338843133355E-15, 1.224646799147353207E-16, -1.000000000000000000 ) ) ;
#130 = CARTESIAN_POINT ( 'NONE',  ( 0.0000000000000000000, 0.0000000000000000000, 0.0000000000000000000 ) ) ;
#131 = DIRECTION ( 'NONE',  ( -3.491481338843133355E-15, 1.224646799147353207E-16, -1.000000000000000000 ) ) ;
#132 = DIRECTION ( 'NONE',  ( 0.0000000000000000000, 1.000000000000000000, 0.0000000000000000000 ) ) ;
#133 = CC_DESIGN_APPROVAL ( #113, ( #138 ) ) ;
#134 = DATE_TIME_ROLE ( 'classification_date' ) ;
#135 = ORIENTED_EDGE ( 'NONE', *, *, #107, .F. ) ;
#136 = CYLINDRICAL_SURFACE ( 'NONE', #38, 0.6699999999999938227 ) ;
#137 = AXIS2_PLACEMENT_3D ( 'NONE', #130, #36, #96 ) ;
#138 = SECURITY_CLASSIFICATION ( '', '', #29 ) ;
#139 = DIRECTION ( 'NONE',  ( 0.0000000000000000000, 0.0000000000000000000, 1.000000000000000000 ) ) ;
#140 = CARTESIAN_POINT ( 'NONE',  ( 3.910459099504308727E-14, -1.371604415045035316E-15, 11.19999999999999751 ) ) ;
#141 = CALENDAR_DATE ( 2021, 8, 10 ) ;
#142 = FACE_OUTER_BOUND ( 'NONE', #14, .T. ) ;
#143 = PRODUCT ( '55386', '55386', '', ( #87 ) ) ;
#144 = AXIS2_PLACEMENT_3D ( 'NONE', #75, #114, #22 ) ;
#145 = EDGE_CURVE ( 'NONE', #112, #112, #39, .T. ) ;
#146 = EDGE_LOOP ( 'NONE', ( #67 ) ) ;
#147 = CIRCLE ( 'NONE', #194, 0.5500000000000000444 ) ;
#148 = CARTESIAN_POINT ( 'NONE',  ( 3.958838484084750689E-14, -1.388573618864634643E-15, 11.33856406460551547 ) ) ;
#149 = EDGE_LOOP ( 'NONE', ( #73 ) ) ;
#150 = CLOSED_SHELL ( 'NONE', ( #152, #164, #61, #62, #88 ) ) ;
#151 = CONICAL_SURFACE ( 'NONE', #144, 0.5500000000000000444, 0.7853981633974510546 ) ;
#152 = ADVANCED_FACE ( 'NONE', ( #5 ), #78, .F. ) ;
#153 = AXIS2_PLACEMENT_3D ( 'NONE', #178, #129, #132 ) ;
#154 = CALENDAR_DATE ( 2021, 8, 10 ) ;
#155 = CALENDAR_DATE ( 2021, 8, 10 ) ;
#156 = CIRCLE ( 'NONE', #91, 0.6699999999999940448 ) ;
#157 = CALENDAR_DATE ( 2021, 8, 10 ) ;
#158 = CARTESIAN_POINT ( 'NONE',  ( 1.047444401652940007E-13, 0.5499999999999963807, 30.00000000000000000 ) ) ;
#159 = EDGE_LOOP ( 'NONE', ( #221 ) ) ;
#160 = COORDINATED_UNIVERSAL_TIME_OFFSET ( 1, 0, .AHEAD. ) ;
#161 =( LENGTH_UNIT ( ) NAMED_UNIT ( * ) SI_UNIT ( .MILLI., .METRE. ) );
#162 = CARTESIAN_POINT ( 'NONE',  ( 3.910459099504308727E-14, 0.6699999999999926015, 11.19999999999999751 ) ) ;
#163 = EDGE_LOOP ( 'NONE', ( #74 ) ) ;
#164 = ADVANCED_FACE ( 'NONE', ( #168, #68 ), #180, .T. ) ;
#165 = CC_DESIGN_PERSON_AND_ORGANIZATION_ASSIGNMENT ( #216, #220, ( #189 ) ) ;
#166 = COORDINATED_UNIVERSAL_TIME_OFFSET ( 1, 0, .AHEAD. ) ;
#167 = APPROVAL_ROLE ( '' ) ;
#168 = FACE_BOUND ( 'NONE', #217, .T. ) ;
#169 = APPROVAL_ROLE ( '' ) ;
#170 = APPROVAL_STATUS ( 'not_yet_approved' ) ;
#171 = EDGE_LOOP ( 'NONE', ( #106 ) ) ;
#172 = PERSON_AND_ORGANIZATION ( #18, #59 ) ;
#173 = PLANE ( 'NONE',  #197 ) ;
#174 = EDGE_CURVE ( 'NONE', #117, #117, #147, .T. ) ;
#175 = FACE_OUTER_BOUND ( 'NONE', #149, .T. ) ;
#176 = CIRCLE ( 'NONE', #110, 0.7499999999999998890 ) ;
#177 = DIRECTION ( 'NONE',  ( 2.874522305055603534E-31, 1.000000000000000000, 1.618212197739574413E-16 ) ) ;
#178 = CARTESIAN_POINT ( 'NONE',  ( 3.958838484084750689E-14, -1.388573618864634643E-15, 11.33856406460551547 ) ) ;
#179 = VERTEX_POINT ( 'NONE', #210 ) ;
#180 = CONICAL_SURFACE ( 'NONE', #115, 0.7499999999999977796, 0.5235987755982948189 ) ;
#181 = DIRECTION ( 'NONE',  ( 0.0000000000000000000, 1.000000000000000000, 0.0000000000000000000 ) ) ;
#182 = CARTESIAN_POINT ( 'NONE',  ( 3.910459099504308727E-14, 0.6699999999999926015, 11.19999999999999751 ) ) ;
#183 = CC_DESIGN_APPROVAL ( #24, ( #189 ) ) ;
#184 =( NAMED_UNIT ( * ) SI_UNIT ( $, .STERADIAN. ) SOLID_ANGLE_UNIT ( ) );
#185 = DATE_AND_TIME ( #157, #81 ) ;
#186 = AXIS2_PLACEMENT_3D ( 'NONE', #55, #111, #95 ) ;
#187 =( GEOMETRIC_REPRESENTATION_CONTEXT ( 3 ) GLOBAL_UNCERTAINTY_ASSIGNED_CONTEXT ( ( #103 ) ) GLOBAL_UNIT_ASSIGNED_CONTEXT ( ( #161, #30, #184 ) ) REPRESENTATION_CONTEXT ( 'NONE', 'WORKASPACE' ) );
#188 = APPLICATION_PROTOCOL_DEFINITION ( 'international standard', 'config_control_design', 1994, #32 ) ;
#189 = PRODUCT_DEFINITION ( 'UNKNOWN', '', #123, #190 ) ;
#190 = DESIGN_CONTEXT ( 'detailed design', #32, 'design' ) ;
#191 = CARTESIAN_POINT ( 'NONE',  ( 0.0000000000000000000, 0.0000000000000000000, 0.0000000000000000000 ) ) ;
#192 = DIRECTION ( 'NONE',  ( 1.000000000000000000, 0.0000000000000000000, 0.0000000000000000000 ) ) ;
#193 = CARTESIAN_POINT ( 'NONE',  ( 1.047444401652940007E-13, -3.673940397442059178E-15, 30.00000000000000000 ) ) ;
#194 = AXIS2_PLACEMENT_3D ( 'NONE', #193, #1, #80 ) ;
#195 = EDGE_CURVE ( 'NONE', #213, #213, #156, .T. ) ;
#196 = CARTESIAN_POINT ( 'NONE',  ( 1.405588737848910278E-15, -4.930141626632859990E-17, 0.4025766147484659552 ) ) ;
#197 = AXIS2_PLACEMENT_3D ( 'NONE', #66, #120, #83 ) ;
#198 = ORIENTED_EDGE ( 'NONE', *, *, #212, .T. ) ;
#199 = CARTESIAN_POINT ( 'NONE',  ( 3.910459099504308727E-14, 2.174665504979938793E-31, 11.19999999999999751 ) ) ;
#200 = PERSON_AND_ORGANIZATION ( #18, #59 ) ;
#201 = PERSON_AND_ORGANIZATION_ROLE ( 'design_owner' ) ;
#202 = APPROVAL_DATE_TIME ( #219, #113 ) ;
#203 = AXIS2_PLACEMENT_3D ( 'NONE', #60, #131, #8 ) ;
#204 = PERSON_AND_ORGANIZATION ( #18, #59 ) ;
#205 = PERSON_AND_ORGANIZATION ( #18, #59 ) ;
#206 = CC_DESIGN_PERSON_AND_ORGANIZATION_ASSIGNMENT ( #200, #51, ( #123 ) ) ;
#207 = LOCAL_TIME ( 7, 15, 18.00000000000000000, #82 ) ;
#208 = APPLICATION_CONTEXT ( 'configuration controlled 3d designs of mechanical parts and assemblies' ) ;
#209 = DIRECTION ( 'NONE',  ( 0.0000000000000000000, 1.000000000000000000, 0.0000000000000000000 ) ) ;
#210 = CARTESIAN_POINT ( 'NONE',  ( 3.958838484084750689E-14, 0.7499999999999963363, 11.33856406460551547 ) ) ;
#211 = CC_DESIGN_PERSON_AND_ORGANIZATION_ASSIGNMENT ( #40, #11, ( #138 ) ) ;
#212 = EDGE_CURVE ( 'NONE', #4, #4, #176, .T. ) ;
#213 = VERTEX_POINT ( 'NONE', #182 ) ;
#214 = LOCAL_TIME ( 7, 15, 18.00000000000000000, #160 ) ;
#215 = DIRECTION ( 'NONE',  ( -3.491481338843133355E-15, 1.224646799147353207E-16, -1.000000000000000000 ) ) ;
#216 = PERSON_AND_ORGANIZATION ( #18, #59 ) ;
#217 = EDGE_LOOP ( 'NONE', ( #105 ) ) ;
#218 = CARTESIAN_POINT ( 'NONE',  ( 1.405588737848910475E-15, 0.6699999999999936007, 0.4025766147484660662 ) ) ;
#219 = DATE_AND_TIME ( #84, #207 ) ;
#220 = PERSON_AND_ORGANIZATION_ROLE ( 'creator' ) ;
#221 = ORIENTED_EDGE ( 'NONE', *, *, #174, .F. ) ;
#222 = APPROVAL_PERSON_ORGANIZATION ( #26, #113, #169 ) ;
#223 = PERSON_AND_ORGANIZATION ( #18, #59 ) ;
ENDSEC;
END-ISO-10303-21;
