ISO-10303-21;
HEADER;
FILE_DESCRIPTION (( 'STEP AP203' ),
    '1' );
FILE_NAME ('55385.step',
    '2021-10-08T05:15:17',
    ( '' ),
    ( '' ),
    'SwSTEP 2.0',
    'SolidWorks 2019',
    '' );
FILE_SCHEMA (( 'CONFIG_CONTROL_DESIGN' ));
ENDSEC;

DATA;
#1 = APPLICATION_CONTEXT ( 'configuration controlled 3d designs of mechanical parts and assemblies' ) ;
#2 = AXIS2_PLACEMENT_3D ( 'NONE', #97, #163, #121 ) ;
#3 = CC_DESIGN_APPROVAL ( #55, ( #36 ) ) ;
#4 = CARTESIAN_POINT ( 'NONE',  ( 3.910459099504309358E-14, 0.6649999999999937073, 11.19999999999999929 ) ) ;
#5 =( LENGTH_UNIT ( ) NAMED_UNIT ( * ) SI_UNIT ( .MILLI., .METRE. ) );
#6 = CC_DESIGN_SECURITY_CLASSIFICATION ( #36, ( #158 ) ) ;
#7 = FACE_OUTER_BOUND ( 'NONE', #21, .T. ) ;
#8 = APPROVAL_STATUS ( 'not_yet_approved' ) ;
#9 = AXIS2_PLACEMENT_3D ( 'NONE', #37, #92, #116 ) ;
#10 = VERTEX_POINT ( 'NONE', #4 ) ;
#11 = PRODUCT_DEFINITION ( 'UNKNOWN', '', #158, #186 ) ;
#12 = DIRECTION ( 'NONE',  ( 0.0000000000000000000, 1.000000000000000000, 0.0000000000000000000 ) ) ;
#13 = CARTESIAN_POINT ( 'NONE',  ( 1.395099269656008192E-15, -4.893349524941570565E-17, 0.3995723116533282382 ) ) ;
#14 = DIRECTION ( 'NONE',  ( 1.000000000000000000, 0.0000000000000000000, 0.0000000000000000000 ) ) ;
#15 = APPLICATION_PROTOCOL_DEFINITION ( 'international standard', 'config_control_design', 1994, #170 ) ;
#16 = PRODUCT_DEFINITION_SHAPE ( 'NONE', 'NONE',  #11 ) ;
#17 = PRODUCT_RELATED_PRODUCT_CATEGORY ( 'detail', '', ( #140 ) ) ;
#18 = AXIS2_PLACEMENT_3D ( 'NONE', #165, #28, #24 ) ;
#19 = MANIFOLD_SOLID_BREP ( 'Corps-Déplacer/Copier1[1]', #71 ) ;
#20 = LOCAL_TIME ( 7, 15, 17.00000000000000000, #123 ) ;
#21 = EDGE_LOOP ( 'NONE', ( #200 ) ) ;
#22 = COORDINATED_UNIVERSAL_TIME_OFFSET ( 1, 0, .AHEAD. ) ;
#23 = EDGE_LOOP ( 'NONE', ( #209 ) ) ;
#24 = DIRECTION ( 'NONE',  ( 0.0000000000000000000, 1.000000000000000000, 0.0000000000000000000 ) ) ;
#25 = CARTESIAN_POINT ( 'NONE',  ( 3.910459099504309358E-14, -1.371604415045035513E-15, 11.19999999999999929 ) ) ;
#26 = FACE_OUTER_BOUND ( 'NONE', #95, .T. ) ;
#27 = CIRCLE ( 'NONE', #218, 0.6649999999999938183 ) ;
#28 = DIRECTION ( 'NONE',  ( -3.491481338843133355E-15, 1.224646799147353207E-16, -1.000000000000000000 ) ) ;
#29 = PERSON_AND_ORGANIZATION_ROLE ( 'design_owner' ) ;
#30 = CARTESIAN_POINT ( 'NONE',  ( 1.047444401652940007E-13, -3.673940397442059178E-15, 30.00000000000000000 ) ) ;
#31 = CC_DESIGN_PERSON_AND_ORGANIZATION_ASSIGNMENT ( #88, #43, ( #158 ) ) ;
#32 = DIRECTION ( 'NONE',  ( 3.491481338843133355E-15, -1.224646799147353207E-16, 1.000000000000000000 ) ) ;
#33 = APPROVAL_PERSON_ORGANIZATION ( #46, #78, #220 ) ;
#34 = VERTEX_POINT ( 'NONE', #45 ) ;
#35 = CARTESIAN_POINT ( 'NONE',  ( 0.0000000000000000000, 0.0000000000000000000, 0.0000000000000000000 ) ) ;
#36 = SECURITY_CLASSIFICATION ( '', '', #101 ) ;
#37 = CARTESIAN_POINT ( 'NONE',  ( 3.910459099504309358E-14, 4.986701277350619208E-33, 11.19999999999999929 ) ) ;
#38 = FACE_OUTER_BOUND ( 'NONE', #42, .T. ) ;
#39 = EDGE_LOOP ( 'NONE', ( #132 ) ) ;
#40 = DIRECTION ( 'NONE',  ( 0.0000000000000000000, 1.000000000000000000, 0.0000000000000000000 ) ) ;
#41 = CONICAL_SURFACE ( 'NONE', #129, 0.6649999999999938183, 1.029744258676649649 ) ;
#42 = EDGE_LOOP ( 'NONE', ( #115 ) ) ;
#43 = PERSON_AND_ORGANIZATION_ROLE ( 'design_supplier' ) ;
#44 =( NAMED_UNIT ( * ) SI_UNIT ( $, .STERADIAN. ) SOLID_ANGLE_UNIT ( ) );
#45 = CARTESIAN_POINT ( 'NONE',  ( 1.047444401652940007E-13, 0.5499999999999963807, 30.00000000000000000 ) ) ;
#46 = PERSON_AND_ORGANIZATION ( #80, #204 ) ;
#47 = PERSON_AND_ORGANIZATION ( #80, #204 ) ;
#48 = DIRECTION ( 'NONE',  ( -4.275831445896958607E-31, -1.000000000000000000, -1.224646799147353207E-16 ) ) ;
#49 = LOCAL_TIME ( 7, 15, 17.00000000000000000, #22 ) ;
#50 = CARTESIAN_POINT ( 'NONE',  ( 1.395099269656008192E-15, -4.893349524941570565E-17, 0.3995723116533282382 ) ) ;
#51 = AXIS2_PLACEMENT_3D ( 'NONE', #35, #94, #161 ) ;
#52 = CC_DESIGN_DATE_AND_TIME_ASSIGNMENT ( #147, #197, ( #11 ) ) ;
#53 = FACE_OUTER_BOUND ( 'NONE', #60, .T. ) ;
#54 = APPROVAL_DATE_TIME ( #74, #219 ) ;
#55 = APPROVAL ( #8, 'UNSPECIFIED' ) ;
#56 = DIRECTION ( 'NONE',  ( -3.491481338843133355E-15, 1.224646799147353207E-16, -1.000000000000000000 ) ) ;
#57 = CIRCLE ( 'NONE', #187, 0.7499999999999977796 ) ;
#58 = AXIS2_PLACEMENT_3D ( 'NONE', #212, #56, #198 ) ;
#59 = EDGE_LOOP ( 'NONE', ( #213 ) ) ;
#60 = EDGE_LOOP ( 'NONE', ( #167 ) ) ;
#61 = CARTESIAN_POINT ( 'NONE',  ( 1.047444401652940007E-13, 4.124339402320052999E-33, 30.00000000000000000 ) ) ;
#62 = ORIENTED_EDGE ( 'NONE', *, *, #194, .F. ) ;
#63 = PLANE ( 'NONE',  #9 ) ;
#64 = DATE_AND_TIME ( #96, #49 ) ;
#65 = AXIS2_PLACEMENT_3D ( 'NONE', #136, #153, #14 ) ;
#66 = PERSON_AND_ORGANIZATION ( #80, #204 ) ;
#67 = DIRECTION ( 'NONE',  ( -3.491481338843133355E-15, 1.224646799147353207E-16, -1.000000000000000000 ) ) ;
#68 = PERSON_AND_ORGANIZATION_ROLE ( 'classification_officer' ) ;
#69 = COORDINATED_UNIVERSAL_TIME_OFFSET ( 1, 0, .AHEAD. ) ;
#70 = CC_DESIGN_PERSON_AND_ORGANIZATION_ASSIGNMENT ( #154, #68, ( #36 ) ) ;
#71 = CLOSED_SHELL ( 'NONE', ( #207, #91, #122, #208, #160 ) ) ;
#72 = CONICAL_SURFACE ( 'NONE', #120, 0.5500000000000000444, 0.7853981633974510546 ) ;
#73 = PERSON_AND_ORGANIZATION ( #80, #204 ) ;
#74 = DATE_AND_TIME ( #109, #138 ) ;
#75 = AXIS2_PLACEMENT_3D ( 'NONE', #61, #85, #203 ) ;
#76 = LOCAL_TIME ( 7, 15, 17.00000000000000000, #125 ) ;
#77 = EDGE_CURVE ( 'NONE', #221, #221, #195, .T. ) ;
#78 = APPROVAL ( #222, 'UNSPECIFIED' ) ;
#79 = SHAPE_DEFINITION_REPRESENTATION ( #16, #144 ) ;
#80 = PERSON ( 'UNSPECIFIED', 'UNSPECIFIED', 'UNSPECIFIED', ('UNSPECIFIED'), ('UNSPECIFIED'), ('UNSPECIFIED') ) ;
#81 = FACE_OUTER_BOUND ( 'NONE', #164, .T. ) ;
#82 = ORIENTED_EDGE ( 'NONE', *, *, #126, .T. ) ;
#83 = APPLICATION_PROTOCOL_DEFINITION ( 'international standard', 'config_control_design', 1994, #1 ) ;
#84 = CARTESIAN_POINT ( 'NONE',  ( 3.961862195621028194E-14, -1.389634194103359884E-15, 11.34722431864336123 ) ) ;
#85 = DIRECTION ( 'NONE',  ( -3.491481338843133355E-15, 1.224646799147353207E-16, -1.000000000000000000 ) ) ;
#86 = FACE_OUTER_BOUND ( 'NONE', #202, .T. ) ;
#87 = UNCERTAINTY_MEASURE_WITH_UNIT (LENGTH_MEASURE( 1.000000000000000082E-05 ), #5, 'distance_accuracy_value', 'NONE');
#88 = PERSON_AND_ORGANIZATION ( #80, #204 ) ;
#89 = EDGE_CURVE ( 'NONE', #178, #178, #57, .T. ) ;
#90 = PERSON_AND_ORGANIZATION ( #80, #204 ) ;
#91 = ADVANCED_FACE ( 'NONE', ( #152, #38 ), #172, .T. ) ;
#92 = DIRECTION ( 'NONE',  ( 3.491481338843133355E-15, -1.224646799147353207E-16, 1.000000000000000000 ) ) ;
#93 = APPROVAL_DATE_TIME ( #64, #55 ) ;
#94 = DIRECTION ( 'NONE',  ( -3.491481338843133355E-15, 1.224646799147353207E-16, -1.000000000000000000 ) ) ;
#95 = EDGE_LOOP ( 'NONE', ( #149 ) ) ;
#96 = CALENDAR_DATE ( 2021, 8, 10 ) ;
#97 = CARTESIAN_POINT ( 'NONE',  ( 3.910459099504309358E-14, -1.371604415045035513E-15, 11.19999999999999929 ) ) ;
#98 = FACE_OUTER_BOUND ( 'NONE', #39, .T. ) ;
#99 = ORIENTED_EDGE ( 'NONE', *, *, #77, .F. ) ;
#100 = DIRECTION ( 'NONE',  ( -3.491481338843133355E-15, 1.224646799147353207E-16, -1.000000000000000000 ) ) ;
#101 = SECURITY_CLASSIFICATION_LEVEL ( 'unclassified' ) ;
#102 = EDGE_CURVE ( 'NONE', #10, #10, #107, .T. ) ;
#103 =( GEOMETRIC_REPRESENTATION_CONTEXT ( 3 ) GLOBAL_UNCERTAINTY_ASSIGNED_CONTEXT ( ( #87 ) ) GLOBAL_UNIT_ASSIGNED_CONTEXT ( ( #5, #110, #44 ) ) REPRESENTATION_CONTEXT ( 'NONE', 'WORKASPACE' ) );
#104 = PERSON_AND_ORGANIZATION_ROLE ( 'creator' ) ;
#105 = CALENDAR_DATE ( 2021, 8, 10 ) ;
#106 = DIRECTION ( 'NONE',  ( 0.0000000000000000000, 1.000000000000000000, 0.0000000000000000000 ) ) ;
#107 = CIRCLE ( 'NONE', #146, 0.6649999999999951505 ) ;
#108 = APPROVAL_ROLE ( '' ) ;
#109 = CALENDAR_DATE ( 2021, 8, 10 ) ;
#110 =( NAMED_UNIT ( * ) PLANE_ANGLE_UNIT ( ) SI_UNIT ( $, .RADIAN. ) );
#111 = ADVANCED_FACE ( 'NONE', ( #86, #53 ), #130, .T. ) ;
#112 = AXIS2_PLACEMENT_3D ( 'NONE', #216, #133, #185 ) ;
#113 = CLOSED_SHELL ( 'NONE', ( #180, #111, #127 ) ) ;
#114 = AXIS2_PLACEMENT_3D ( 'NONE', #174, #32, #48 ) ;
#115 = ORIENTED_EDGE ( 'NONE', *, *, #89, .T. ) ;
#116 = DIRECTION ( 'NONE',  ( -4.275831445896958607E-31, -1.000000000000000000, -1.224646799147353207E-16 ) ) ;
#117 = APPROVAL_ROLE ( '' ) ;
#118 = ORIENTED_EDGE ( 'NONE', *, *, #134, .F. ) ;
#119 = ORIENTED_EDGE ( 'NONE', *, *, #134, .T. ) ;
#120 = AXIS2_PLACEMENT_3D ( 'NONE', #30, #67, #106 ) ;
#121 = DIRECTION ( 'NONE',  ( 0.0000000000000000000, 1.000000000000000000, 0.0000000000000000000 ) ) ;
#122 = ADVANCED_FACE ( 'NONE', ( #7, #81 ), #148, .T. ) ;
#123 = COORDINATED_UNIVERSAL_TIME_OFFSET ( 1, 0, .AHEAD. ) ;
#124 = DATE_TIME_ROLE ( 'classification_date' ) ;
#125 = COORDINATED_UNIVERSAL_TIME_OFFSET ( 1, 0, .AHEAD. ) ;
#126 = EDGE_CURVE ( 'NONE', #34, #34, #175, .T. ) ;
#127 = ADVANCED_FACE ( 'NONE', ( #189 ), #223, .T. ) ;
#128 = DIRECTION ( 'NONE',  ( -3.491481338843133355E-15, 1.224646799147353207E-16, -1.000000000000000000 ) ) ;
#129 = AXIS2_PLACEMENT_3D ( 'NONE', #13, #211, #139 ) ;
#130 = CYLINDRICAL_SURFACE ( 'NONE', #51, 0.6649999999999944844 ) ;
#131 = CARTESIAN_POINT ( 'NONE',  ( 1.047444401652940007E-13, -3.673940397442059178E-15, 30.00000000000000000 ) ) ;
#132 = ORIENTED_EDGE ( 'NONE', *, *, #126, .F. ) ;
#133 = DIRECTION ( 'NONE',  ( 3.491481338843133355E-15, -1.224646799147353207E-16, 1.000000000000000000 ) ) ;
#134 = EDGE_CURVE ( 'NONE', #156, #156, #188, .T. ) ;
#135 = DATE_AND_TIME ( #105, #206 ) ;
#136 = CARTESIAN_POINT ( 'NONE',  ( 0.0000000000000000000, 0.0000000000000000000, 0.0000000000000000000 ) ) ;
#137 = DIRECTION ( 'NONE',  ( 0.0000000000000000000, 1.000000000000000000, 0.0000000000000000000 ) ) ;
#138 = LOCAL_TIME ( 7, 15, 17.00000000000000000, #145 ) ;
#139 = DIRECTION ( 'NONE',  ( -2.896135254717674786E-31, -1.000000000000000000, -1.630379206745134586E-16 ) ) ;
#140 = PRODUCT ( '55385', '55385', '', ( #201 ) ) ;
#141 = DIRECTION ( 'NONE',  ( 2.896135254717674786E-31, 1.000000000000000000, 1.630379206745134586E-16 ) ) ;
#142 = FACE_BOUND ( 'NONE', #182, .T. ) ;
#143 = CC_DESIGN_APPROVAL ( #219, ( #11 ) ) ;
#144 = ADVANCED_BREP_SHAPE_REPRESENTATION ( '55385', ( #19, #168, #65 ), #103 ) ;
#145 = COORDINATED_UNIVERSAL_TIME_OFFSET ( 1, 0, .AHEAD. ) ;
#146 = AXIS2_PLACEMENT_3D ( 'NONE', #25, #100, #12 ) ;
#147 = DATE_AND_TIME ( #159, #76 ) ;
#148 = CYLINDRICAL_SURFACE ( 'NONE', #58, 0.7499999999999987788 ) ;
#149 = ORIENTED_EDGE ( 'NONE', *, *, #194, .T. ) ;
#150 = EDGE_LOOP ( 'NONE', ( #99 ) ) ;
#151 = CC_DESIGN_PERSON_AND_ORGANIZATION_ASSIGNMENT ( #73, #173, ( #158 ) ) ;
#152 = FACE_BOUND ( 'NONE', #59, .T. ) ;
#153 = DIRECTION ( 'NONE',  ( 0.0000000000000000000, 0.0000000000000000000, 1.000000000000000000 ) ) ;
#154 = PERSON_AND_ORGANIZATION ( #80, #204 ) ;
#155 = PERSON_AND_ORGANIZATION ( #80, #204 ) ;
#156 = VERTEX_POINT ( 'NONE', #157 ) ;
#157 = CARTESIAN_POINT ( 'NONE',  ( 1.040461438975253740E-13, 0.7499999999999962252, 29.80000000000000071 ) ) ;
#158 = PRODUCT_DEFINITION_FORMATION_WITH_SPECIFIED_SOURCE ( 'ANY', '', #140, .NOT_KNOWN. ) ;
#159 = CALENDAR_DATE ( 2021, 8, 10 ) ;
#160 = ADVANCED_FACE ( 'NONE', ( #98 ), #215, .F. ) ;
#161 = DIRECTION ( 'NONE',  ( 4.275831445896958607E-31, 1.000000000000000000, 1.224646799147353207E-16 ) ) ;
#162 = CC_DESIGN_PERSON_AND_ORGANIZATION_ASSIGNMENT ( #66, #104, ( #11 ) ) ;
#163 = DIRECTION ( 'NONE',  ( -3.491481338843133355E-15, 1.224646799147353207E-16, -1.000000000000000000 ) ) ;
#164 = EDGE_LOOP ( 'NONE', ( #119 ) ) ;
#165 = CARTESIAN_POINT ( 'NONE',  ( 1.040461438975253740E-13, -3.649447461459112464E-15, 29.80000000000000071 ) ) ;
#166 = CARTESIAN_POINT ( 'NONE',  ( 3.961862195621028194E-14, 0.7499999999999963363, 11.34722431864336123 ) ) ;
#167 = ORIENTED_EDGE ( 'NONE', *, *, #77, .T. ) ;
#168 = MANIFOLD_SOLID_BREP ( 'Corps-Déplacer/Copier1[2]', #113 ) ;
#169 = CARTESIAN_POINT ( 'NONE',  ( 3.910459099504309358E-14, 0.6649999999999937073, 11.19999999999999929 ) ) ;
#170 = APPLICATION_CONTEXT ( 'configuration controlled 3d designs of mechanical parts and assemblies' ) ;
#171 = APPROVAL_DATE_TIME ( #135, #78 ) ;
#172 = CONICAL_SURFACE ( 'NONE', #112, 0.7499999999999977796, 0.5235987755982922653 ) ;
#173 = PERSON_AND_ORGANIZATION_ROLE ( 'creator' ) ;
#174 = CARTESIAN_POINT ( 'NONE',  ( 3.910459099504309358E-14, 4.986701277350619208E-33, 11.19999999999999929 ) ) ;
#175 = CIRCLE ( 'NONE', #196, 0.5500000000000000444 ) ;
#176 = CC_DESIGN_APPROVAL ( #78, ( #158 ) ) ;
#177 = DATE_AND_TIME ( #193, #20 ) ;
#178 = VERTEX_POINT ( 'NONE', #166 ) ;
#179 = VERTEX_POINT ( 'NONE', #210 ) ;
#180 = ADVANCED_FACE ( 'NONE', ( #26 ), #41, .T. ) ;
#181 = CC_DESIGN_DATE_AND_TIME_ASSIGNMENT ( #177, #124, ( #36 ) ) ;
#182 = EDGE_LOOP ( 'NONE', ( #82 ) ) ;
#183 = FACE_OUTER_BOUND ( 'NONE', #199, .T. ) ;
#184 = DIRECTION ( 'NONE',  ( -3.491481338843133355E-15, 1.224646799147353207E-16, -1.000000000000000000 ) ) ;
#185 = DIRECTION ( 'NONE',  ( 0.0000000000000000000, -1.000000000000000000, 0.0000000000000000000 ) ) ;
#186 = DESIGN_CONTEXT ( 'detailed design', #170, 'design' ) ;
#187 = AXIS2_PLACEMENT_3D ( 'NONE', #84, #214, #40 ) ;
#188 = CIRCLE ( 'NONE', #18, 0.7499999999999998890 ) ;
#189 = FACE_OUTER_BOUND ( 'NONE', #150, .T. ) ;
#190 = CC_DESIGN_PERSON_AND_ORGANIZATION_ASSIGNMENT ( #47, #29, ( #140 ) ) ;
#191 = APPROVAL_PERSON_ORGANIZATION ( #155, #219, #108 ) ;
#192 = APPROVAL_PERSON_ORGANIZATION ( #90, #55, #117 ) ;
#193 = CALENDAR_DATE ( 2021, 8, 10 ) ;
#194 = EDGE_CURVE ( 'NONE', #179, #179, #27, .T. ) ;
#195 = CIRCLE ( 'NONE', #2, 0.6649999999999951505 ) ;
#196 = AXIS2_PLACEMENT_3D ( 'NONE', #131, #184, #137 ) ;
#197 = DATE_TIME_ROLE ( 'creation_date' ) ;
#198 = DIRECTION ( 'NONE',  ( 4.275831445896959482E-31, 1.000000000000000000, 1.224646799147353207E-16 ) ) ;
#199 = EDGE_LOOP ( 'NONE', ( #118 ) ) ;
#200 = ORIENTED_EDGE ( 'NONE', *, *, #89, .F. ) ;
#201 = MECHANICAL_CONTEXT ( 'NONE', #1, 'mechanical' ) ;
#202 = EDGE_LOOP ( 'NONE', ( #62 ) ) ;
#203 = DIRECTION ( 'NONE',  ( 4.275831445896958607E-31, 1.000000000000000000, 1.224646799147353207E-16 ) ) ;
#204 = ORGANIZATION ( 'UNSPECIFIED', 'UNSPECIFIED', '' ) ;
#205 = APPROVAL_STATUS ( 'not_yet_approved' ) ;
#206 = LOCAL_TIME ( 7, 15, 17.00000000000000000, #69 ) ;
#207 = ADVANCED_FACE ( 'NONE', ( #217 ), #63, .F. ) ;
#208 = ADVANCED_FACE ( 'NONE', ( #183, #142 ), #72, .T. ) ;
#209 = ORIENTED_EDGE ( 'NONE', *, *, #102, .T. ) ;
#210 = CARTESIAN_POINT ( 'NONE',  ( 1.395099269656008390E-15, 0.6649999999999938183, 0.3995723116533283492 ) ) ;
#211 = DIRECTION ( 'NONE',  ( 3.491481338843133355E-15, -1.224646799147353207E-16, 1.000000000000000000 ) ) ;
#212 = CARTESIAN_POINT ( 'NONE',  ( 0.0000000000000000000, 0.0000000000000000000, 0.0000000000000000000 ) ) ;
#213 = ORIENTED_EDGE ( 'NONE', *, *, #102, .F. ) ;
#214 = DIRECTION ( 'NONE',  ( -3.491481338843133355E-15, 1.224646799147353207E-16, -1.000000000000000000 ) ) ;
#215 = PLANE ( 'NONE',  #75 ) ;
#216 = CARTESIAN_POINT ( 'NONE',  ( 3.961862195621028194E-14, -1.389634194103359884E-15, 11.34722431864336123 ) ) ;
#217 = FACE_OUTER_BOUND ( 'NONE', #23, .T. ) ;
#218 = AXIS2_PLACEMENT_3D ( 'NONE', #50, #128, #141 ) ;
#219 = APPROVAL ( #205, 'UNSPECIFIED' ) ;
#220 = APPROVAL_ROLE ( '' ) ;
#221 = VERTEX_POINT ( 'NONE', #169 ) ;
#222 = APPROVAL_STATUS ( 'not_yet_approved' ) ;
#223 = PLANE ( 'NONE',  #114 ) ;
ENDSEC;
END-ISO-10303-21;
