ISO-10303-21;
HEADER;
FILE_DESCRIPTION (( 'STEP AP203' ),
    '1' );
FILE_NAME ('55384.step',
    '2021-10-08T05:15:17',
    ( '' ),
    ( '' ),
    'SwSTEP 2.0',
    'SolidWorks 2019',
    '' );
FILE_SCHEMA (( 'CONFIG_CONTROL_DESIGN' ));
ENDSEC;

DATA;
#1 = DIRECTION ( 'NONE',  ( 4.275831445896957731E-31, 1.000000000000000000, 1.224646799147353207E-16 ) ) ;
#2 = DIRECTION ( 'NONE',  ( -2.918075673314021039E-31, -1.000000000000000000, -8.213652821859958982E-17 ) ) ;
#3 = CONICAL_SURFACE ( 'NONE', #195, 0.5500000000000000444, 0.7853981633974510546 ) ;
#4 = CYLINDRICAL_SURFACE ( 'NONE', #199, 0.6599999999999944800 ) ;
#5 = COORDINATED_UNIVERSAL_TIME_OFFSET ( 1, 0, .AHEAD. ) ;
#6 = CARTESIAN_POINT ( 'NONE',  ( 1.384609801463106106E-15, -4.856557423250281756E-17, 0.3965680085581904657 ) ) ;
#7 = ADVANCED_FACE ( 'NONE', ( #35 ), #164, .T. ) ;
#8 = AXIS2_PLACEMENT_3D ( 'NONE', #222, #79, #146 ) ;
#9 = CARTESIAN_POINT ( 'NONE',  ( 1.047444401652940007E-13, 0.5499999999999963807, 30.00000000000000000 ) ) ;
#10 =( LENGTH_UNIT ( ) NAMED_UNIT ( * ) SI_UNIT ( .MILLI., .METRE. ) );
#11 = CC_DESIGN_DATE_AND_TIME_ASSIGNMENT ( #95, #139, ( #132 ) ) ;
#12 = APPROVAL_ROLE ( '' ) ;
#13 = CLOSED_SHELL ( 'NONE', ( #123, #88, #37, #200, #208 ) ) ;
#14 = ORIENTED_EDGE ( 'NONE', *, *, #176, .F. ) ;
#15 = MANIFOLD_SOLID_BREP ( 'Corps-Déplacer/Copier1[1]', #13 ) ;
#16 = FACE_OUTER_BOUND ( 'NONE', #97, .T. ) ;
#17 = MANIFOLD_SOLID_BREP ( 'Corps-Déplacer/Copier1[2]', #104 ) ;
#18 = CC_DESIGN_SECURITY_CLASSIFICATION ( #205, ( #92 ) ) ;
#19 = ORIENTED_EDGE ( 'NONE', *, *, #31, .F. ) ;
#20 = EDGE_LOOP ( 'NONE', ( #183 ) ) ;
#21 = COORDINATED_UNIVERSAL_TIME_OFFSET ( 1, 0, .AHEAD. ) ;
#22 = CARTESIAN_POINT ( 'NONE',  ( 1.384609801463106106E-15, -4.856557423250281756E-17, 0.3965680085581904657 ) ) ;
#23 = APPROVAL_ROLE ( '' ) ;
#24 = CARTESIAN_POINT ( 'NONE',  ( 1.047444401652940007E-13, -3.673940397442059178E-15, 30.00000000000000000 ) ) ;
#25 = CC_DESIGN_APPROVAL ( #186, ( #132 ) ) ;
#26 = DIRECTION ( 'NONE',  ( -3.491481338843133355E-15, 1.224646799147353207E-16, -1.000000000000000000 ) ) ;
#27 = CIRCLE ( 'NONE', #87, 0.7499999999999975575 ) ;
#28 = PERSON_AND_ORGANIZATION ( #102, #209 ) ;
#29 = AXIS2_PLACEMENT_3D ( 'NONE', #101, #68, #120 ) ;
#30 = APPROVAL_ROLE ( '' ) ;
#31 = EDGE_CURVE ( 'NONE', #124, #124, #112, .T. ) ;
#32 = CALENDAR_DATE ( 2021, 8, 10 ) ;
#33 = CONICAL_SURFACE ( 'NONE', #29, 0.7499999999999975575, 0.5235987755982942637 ) ;
#34 = EDGE_LOOP ( 'NONE', ( #82 ) ) ;
#35 = FACE_OUTER_BOUND ( 'NONE', #99, .T. ) ;
#36 = DATE_AND_TIME ( #193, #216 ) ;
#37 = ADVANCED_FACE ( 'NONE', ( #16, #218 ), #149, .T. ) ;
#38 = EDGE_LOOP ( 'NONE', ( #51 ) ) ;
#39 = PERSON_AND_ORGANIZATION ( #102, #209 ) ;
#40 = DIRECTION ( 'NONE',  ( -3.491481338843133355E-15, 1.224646799147353207E-16, -1.000000000000000000 ) ) ;
#41 = DIRECTION ( 'NONE',  ( -3.491481338843133355E-15, 1.224646799147353207E-16, -1.000000000000000000 ) ) ;
#42 = CARTESIAN_POINT ( 'NONE',  ( 3.491481338843133355E-14, -1.224646799147353256E-15, 10.00000000000000000 ) ) ;
#43 = PERSON_AND_ORGANIZATION ( #102, #209 ) ;
#44 = APPROVAL_PERSON_ORGANIZATION ( #39, #58, #23 ) ;
#45 = VERTEX_POINT ( 'NONE', #90 ) ;
#46 = APPLICATION_PROTOCOL_DEFINITION ( 'international standard', 'config_control_design', 1994, #174 ) ;
#47 = AXIS2_PLACEMENT_3D ( 'NONE', #167, #131, #203 ) ;
#48 = CC_DESIGN_APPROVAL ( #58, ( #205 ) ) ;
#49 = ORIENTED_EDGE ( 'NONE', *, *, #176, .T. ) ;
#50 = FACE_BOUND ( 'NONE', #63, .T. ) ;
#51 = ORIENTED_EDGE ( 'NONE', *, *, #115, .T. ) ;
#52 = CC_DESIGN_PERSON_AND_ORGANIZATION_ASSIGNMENT ( #28, #89, ( #92 ) ) ;
#53 = CIRCLE ( 'NONE', #150, 0.6599999999999951461 ) ;
#54 = CARTESIAN_POINT ( 'NONE',  ( 3.545908146496129695E-14, -1.243737153444402278E-15, 10.15588457268120415 ) ) ;
#55 = FACE_OUTER_BOUND ( 'NONE', #34, .T. ) ;
#56 = CARTESIAN_POINT ( 'NONE',  ( 1.047444401652940007E-13, -3.673940397442059178E-15, 30.00000000000000000 ) ) ;
#57 = LOCAL_TIME ( 7, 15, 17.00000000000000000, #21 ) ;
#58 = APPROVAL ( #198, 'UNSPECIFIED' ) ;
#59 = PERSON_AND_ORGANIZATION_ROLE ( 'creator' ) ;
#60 = AXIS2_PLACEMENT_3D ( 'NONE', #211, #61, #215 ) ;
#61 = DIRECTION ( 'NONE',  ( 0.0000000000000000000, 0.0000000000000000000, 1.000000000000000000 ) ) ;
#62 = APPROVAL_STATUS ( 'not_yet_approved' ) ;
#63 = EDGE_LOOP ( 'NONE', ( #100 ) ) ;
#64 = ORIENTED_EDGE ( 'NONE', *, *, #148, .T. ) ;
#65 = EDGE_LOOP ( 'NONE', ( #80 ) ) ;
#66 = LOCAL_TIME ( 7, 15, 17.00000000000000000, #180 ) ;
#67 = DIRECTION ( 'NONE',  ( -4.275831445896958607E-31, -1.000000000000000000, -1.224646799147353207E-16 ) ) ;
#68 = DIRECTION ( 'NONE',  ( 3.491481338843133355E-15, -1.224646799147353207E-16, 1.000000000000000000 ) ) ;
#69 = PLANE ( 'NONE',  #163 ) ;
#70 = CIRCLE ( 'NONE', #153, 0.6599999999999938138 ) ;
#71 = DIRECTION ( 'NONE',  ( -4.275831445896958607E-31, -1.000000000000000000, -1.224646799147353207E-16 ) ) ;
#72 = CARTESIAN_POINT ( 'NONE',  ( 0.0000000000000000000, 0.0000000000000000000, 0.0000000000000000000 ) ) ;
#73 = DIRECTION ( 'NONE',  ( 0.0000000000000000000, 1.000000000000000000, 0.0000000000000000000 ) ) ;
#74 = PERSON_AND_ORGANIZATION ( #102, #209 ) ;
#75 = VERTEX_POINT ( 'NONE', #9 ) ;
#76 = MECHANICAL_CONTEXT ( 'NONE', #137, 'mechanical' ) ;
#77 =( NAMED_UNIT ( * ) PLANE_ANGLE_UNIT ( ) SI_UNIT ( $, .RADIAN. ) );
#78 = CC_DESIGN_APPROVAL ( #94, ( #92 ) ) ;
#79 = DIRECTION ( 'NONE',  ( -3.491481338843133355E-15, 1.224646799147353207E-16, -1.000000000000000000 ) ) ;
#80 = ORIENTED_EDGE ( 'NONE', *, *, #213, .T. ) ;
#81 = CIRCLE ( 'NONE', #221, 0.7499999999999998890 ) ;
#82 = ORIENTED_EDGE ( 'NONE', *, *, #31, .T. ) ;
#83 = DIRECTION ( 'NONE',  ( -3.491481338843133355E-15, 1.224646799147353207E-16, -1.000000000000000000 ) ) ;
#84 = DIRECTION ( 'NONE',  ( 0.0000000000000000000, 1.000000000000000000, 0.0000000000000000000 ) ) ;
#85 = CC_DESIGN_DATE_AND_TIME_ASSIGNMENT ( #108, #156, ( #205 ) ) ;
#86 = DIRECTION ( 'NONE',  ( -3.491481338843133355E-15, 1.224646799147353207E-16, -1.000000000000000000 ) ) ;
#87 = AXIS2_PLACEMENT_3D ( 'NONE', #54, #86, #106 ) ;
#88 = ADVANCED_FACE ( 'NONE', ( #50, #184 ), #33, .T. ) ;
#89 = PERSON_AND_ORGANIZATION_ROLE ( 'design_supplier' ) ;
#90 = CARTESIAN_POINT ( 'NONE',  ( 3.491481338843133355E-14, 0.6599999999999939249, 10.00000000000000000 ) ) ;
#91 = PRODUCT ( '55384', '55384', '', ( #76 ) ) ;
#92 = PRODUCT_DEFINITION_FORMATION_WITH_SPECIFIED_SOURCE ( 'ANY', '', #91, .NOT_KNOWN. ) ;
#93 = PERSON_AND_ORGANIZATION ( #102, #209 ) ;
#94 = APPROVAL ( #160, 'UNSPECIFIED' ) ;
#95 = DATE_AND_TIME ( #32, #66 ) ;
#96 = PERSON_AND_ORGANIZATION ( #102, #209 ) ;
#97 = EDGE_LOOP ( 'NONE', ( #128 ) ) ;
#98 = DESIGN_CONTEXT ( 'detailed design', #174, 'design' ) ;
#99 = EDGE_LOOP ( 'NONE', ( #19 ) ) ;
#100 = ORIENTED_EDGE ( 'NONE', *, *, #148, .F. ) ;
#101 = CARTESIAN_POINT ( 'NONE',  ( 3.545908146496129695E-14, -1.243737153444402278E-15, 10.15588457268120415 ) ) ;
#102 = PERSON ( 'UNSPECIFIED', 'UNSPECIFIED', 'UNSPECIFIED', ('UNSPECIFIED'), ('UNSPECIFIED'), ('UNSPECIFIED') ) ;
#103 = SHAPE_DEFINITION_REPRESENTATION ( #143, #212 ) ;
#104 = CLOSED_SHELL ( 'NONE', ( #165, #177, #7 ) ) ;
#105 = DIRECTION ( 'NONE',  ( 4.275831445896958607E-31, 1.000000000000000000, 1.224646799147353207E-16 ) ) ;
#106 = DIRECTION ( 'NONE',  ( 0.0000000000000000000, 1.000000000000000000, 0.0000000000000000000 ) ) ;
#107 = DIRECTION ( 'NONE',  ( -3.491481338843133355E-15, 1.224646799147353207E-16, -1.000000000000000000 ) ) ;
#108 = DATE_AND_TIME ( #207, #57 ) ;
#109 = COORDINATED_UNIVERSAL_TIME_OFFSET ( 1, 0, .AHEAD. ) ;
#110 = VERTEX_POINT ( 'NONE', #126 ) ;
#111 = PERSON_AND_ORGANIZATION_ROLE ( 'design_owner' ) ;
#112 = CIRCLE ( 'NONE', #8, 0.6599999999999951461 ) ;
#113 = PERSON_AND_ORGANIZATION ( #102, #209 ) ;
#114 = CARTESIAN_POINT ( 'NONE',  ( 1.040461438975253740E-13, 0.7499999999999962252, 29.80000000000000071 ) ) ;
#115 = EDGE_CURVE ( 'NONE', #75, #75, #168, .T. ) ;
#116 = EDGE_LOOP ( 'NONE', ( #49 ) ) ;
#117 = LOCAL_TIME ( 7, 15, 17.00000000000000000, #122 ) ;
#118 = PLANE ( 'NONE',  #142 ) ;
#119 = DIRECTION ( 'NONE',  ( -3.491481338843133355E-15, 1.224646799147353207E-16, -1.000000000000000000 ) ) ;
#120 = DIRECTION ( 'NONE',  ( 0.0000000000000000000, -1.000000000000000000, 0.0000000000000000000 ) ) ;
#121 = DATE_AND_TIME ( #145, #157 ) ;
#122 = COORDINATED_UNIVERSAL_TIME_OFFSET ( 1, 0, .AHEAD. ) ;
#123 = ADVANCED_FACE ( 'NONE', ( #190 ), #69, .F. ) ;
#124 = VERTEX_POINT ( 'NONE', #210 ) ;
#125 = DATE_AND_TIME ( #214, #117 ) ;
#126 = CARTESIAN_POINT ( 'NONE',  ( 1.384609801463106304E-15, 0.6599999999999938138, 0.3965680085581905212 ) ) ;
#127 = EDGE_CURVE ( 'NONE', #144, #144, #27, .T. ) ;
#128 = ORIENTED_EDGE ( 'NONE', *, *, #127, .F. ) ;
#129 = SECURITY_CLASSIFICATION_LEVEL ( 'unclassified' ) ;
#130 = CONICAL_SURFACE ( 'NONE', #138, 0.6599999999999938138, 1.029744258676649649 ) ;
#131 = DIRECTION ( 'NONE',  ( -3.491481338843133355E-15, 1.224646799147353207E-16, -1.000000000000000000 ) ) ;
#132 = PRODUCT_DEFINITION ( 'UNKNOWN', '', #92, #98 ) ;
#133 = DIRECTION ( 'NONE',  ( 0.0000000000000000000, 1.000000000000000000, 0.0000000000000000000 ) ) ;
#134 =( GEOMETRIC_REPRESENTATION_CONTEXT ( 3 ) GLOBAL_UNCERTAINTY_ASSIGNED_CONTEXT ( ( #182 ) ) GLOBAL_UNIT_ASSIGNED_CONTEXT ( ( #10, #77, #161 ) ) REPRESENTATION_CONTEXT ( 'NONE', 'WORKASPACE' ) );
#135 = FACE_OUTER_BOUND ( 'NONE', #116, .T. ) ;
#136 = FACE_OUTER_BOUND ( 'NONE', #151, .T. ) ;
#137 = APPLICATION_CONTEXT ( 'configuration controlled 3d designs of mechanical parts and assemblies' ) ;
#138 = AXIS2_PLACEMENT_3D ( 'NONE', #6, #154, #2 ) ;
#139 = DATE_TIME_ROLE ( 'creation_date' ) ;
#140 = PRODUCT_RELATED_PRODUCT_CATEGORY ( 'detail', '', ( #91 ) ) ;
#141 = AXIS2_PLACEMENT_3D ( 'NONE', #24, #152, #84 ) ;
#142 = AXIS2_PLACEMENT_3D ( 'NONE', #188, #40, #105 ) ;
#143 = PRODUCT_DEFINITION_SHAPE ( 'NONE', 'NONE',  #132 ) ;
#144 = VERTEX_POINT ( 'NONE', #196 ) ;
#145 = CALENDAR_DATE ( 2021, 8, 10 ) ;
#146 = DIRECTION ( 'NONE',  ( 0.0000000000000000000, 1.000000000000000000, 0.0000000000000000000 ) ) ;
#147 = ORIENTED_EDGE ( 'NONE', *, *, #213, .F. ) ;
#148 = EDGE_CURVE ( 'NONE', #45, #45, #53, .T. ) ;
#149 = CYLINDRICAL_SURFACE ( 'NONE', #47, 0.7499999999999986677 ) ;
#150 = AXIS2_PLACEMENT_3D ( 'NONE', #42, #41, #73 ) ;
#151 = EDGE_LOOP ( 'NONE', ( #147 ) ) ;
#152 = DIRECTION ( 'NONE',  ( -3.491481338843133355E-15, 1.224646799147353207E-16, -1.000000000000000000 ) ) ;
#153 = AXIS2_PLACEMENT_3D ( 'NONE', #22, #107, #206 ) ;
#154 = DIRECTION ( 'NONE',  ( 3.491481338843133355E-15, -1.224646799147353207E-16, 1.000000000000000000 ) ) ;
#155 = DIRECTION ( 'NONE',  ( 3.491481338843133355E-15, -1.224646799147353207E-16, 1.000000000000000000 ) ) ;
#156 = DATE_TIME_ROLE ( 'classification_date' ) ;
#157 = LOCAL_TIME ( 7, 15, 17.00000000000000000, #109 ) ;
#158 = DIRECTION ( 'NONE',  ( 0.0000000000000000000, 1.000000000000000000, 0.0000000000000000000 ) ) ;
#159 = APPROVAL_PERSON_ORGANIZATION ( #93, #186, #30 ) ;
#160 = APPROVAL_STATUS ( 'not_yet_approved' ) ;
#161 =( NAMED_UNIT ( * ) SI_UNIT ( $, .STERADIAN. ) SOLID_ANGLE_UNIT ( ) );
#162 = EDGE_LOOP ( 'NONE', ( #64 ) ) ;
#163 = AXIS2_PLACEMENT_3D ( 'NONE', #171, #155, #71 ) ;
#164 = PLANE ( 'NONE',  #191 ) ;
#165 = ADVANCED_FACE ( 'NONE', ( #135 ), #130, .T. ) ;
#166 = CARTESIAN_POINT ( 'NONE',  ( 3.491481338843133355E-14, 4.949207282784075915E-33, 10.00000000000000000 ) ) ;
#167 = CARTESIAN_POINT ( 'NONE',  ( 0.0000000000000000000, 0.0000000000000000000, 0.0000000000000000000 ) ) ;
#168 = CIRCLE ( 'NONE', #141, 0.5500000000000000444 ) ;
#169 = EDGE_LOOP ( 'NONE', ( #14 ) ) ;
#170 = CARTESIAN_POINT ( 'NONE',  ( 1.040461438975253740E-13, -3.649447461459112464E-15, 29.80000000000000071 ) ) ;
#171 = CARTESIAN_POINT ( 'NONE',  ( 3.491481338843133355E-14, 4.949207282784075915E-33, 10.00000000000000000 ) ) ;
#172 = FACE_OUTER_BOUND ( 'NONE', #169, .T. ) ;
#173 = CC_DESIGN_PERSON_AND_ORGANIZATION_ASSIGNMENT ( #74, #111, ( #91 ) ) ;
#174 = APPLICATION_CONTEXT ( 'configuration controlled 3d designs of mechanical parts and assemblies' ) ;
#175 = APPROVAL_PERSON_ORGANIZATION ( #96, #94, #12 ) ;
#176 = EDGE_CURVE ( 'NONE', #110, #110, #70, .T. ) ;
#177 = ADVANCED_FACE ( 'NONE', ( #172, #55 ), #4, .T. ) ;
#178 = PERSON_AND_ORGANIZATION_ROLE ( 'creator' ) ;
#179 = VERTEX_POINT ( 'NONE', #114 ) ;
#180 = COORDINATED_UNIVERSAL_TIME_OFFSET ( 1, 0, .AHEAD. ) ;
#181 = APPLICATION_PROTOCOL_DEFINITION ( 'international standard', 'config_control_design', 1994, #137 ) ;
#182 = UNCERTAINTY_MEASURE_WITH_UNIT (LENGTH_MEASURE( 1.000000000000000082E-05 ), #10, 'distance_accuracy_value', 'NONE');
#183 = ORIENTED_EDGE ( 'NONE', *, *, #127, .T. ) ;
#184 = FACE_OUTER_BOUND ( 'NONE', #20, .T. ) ;
#185 = PERSON_AND_ORGANIZATION_ROLE ( 'classification_officer' ) ;
#186 = APPROVAL ( #62, 'UNSPECIFIED' ) ;
#187 = DIRECTION ( 'NONE',  ( 3.491481338843133355E-15, -1.224646799147353207E-16, 1.000000000000000000 ) ) ;
#188 = CARTESIAN_POINT ( 'NONE',  ( 1.047444401652940007E-13, 4.124339402320052999E-33, 30.00000000000000000 ) ) ;
#189 = FACE_BOUND ( 'NONE', #38, .T. ) ;
#190 = FACE_OUTER_BOUND ( 'NONE', #162, .T. ) ;
#191 = AXIS2_PLACEMENT_3D ( 'NONE', #166, #187, #67 ) ;
#192 = CC_DESIGN_PERSON_AND_ORGANIZATION_ASSIGNMENT ( #223, #185, ( #205 ) ) ;
#193 = CALENDAR_DATE ( 2021, 8, 10 ) ;
#194 = APPROVAL_DATE_TIME ( #121, #94 ) ;
#195 = AXIS2_PLACEMENT_3D ( 'NONE', #56, #26, #133 ) ;
#196 = CARTESIAN_POINT ( 'NONE',  ( 3.545908146496129695E-14, 0.7499999999999963363, 10.15588457268120415 ) ) ;
#197 = APPROVAL_DATE_TIME ( #125, #186 ) ;
#198 = APPROVAL_STATUS ( 'not_yet_approved' ) ;
#199 = AXIS2_PLACEMENT_3D ( 'NONE', #72, #119, #1 ) ;
#200 = ADVANCED_FACE ( 'NONE', ( #136, #189 ), #3, .T. ) ;
#201 = CC_DESIGN_PERSON_AND_ORGANIZATION_ASSIGNMENT ( #113, #59, ( #132 ) ) ;
#202 = EDGE_LOOP ( 'NONE', ( #220 ) ) ;
#203 = DIRECTION ( 'NONE',  ( 4.275831445896959482E-31, 1.000000000000000000, 1.224646799147353207E-16 ) ) ;
#204 = FACE_OUTER_BOUND ( 'NONE', #202, .T. ) ;
#205 = SECURITY_CLASSIFICATION ( '', '', #129 ) ;
#206 = DIRECTION ( 'NONE',  ( 2.918075673314021039E-31, 1.000000000000000000, 8.213652821859958982E-17 ) ) ;
#207 = CALENDAR_DATE ( 2021, 8, 10 ) ;
#208 = ADVANCED_FACE ( 'NONE', ( #204 ), #118, .F. ) ;
#209 = ORGANIZATION ( 'UNSPECIFIED', 'UNSPECIFIED', '' ) ;
#210 = CARTESIAN_POINT ( 'NONE',  ( 3.491481338843133355E-14, 0.6599999999999939249, 10.00000000000000000 ) ) ;
#211 = CARTESIAN_POINT ( 'NONE',  ( 0.0000000000000000000, 0.0000000000000000000, 0.0000000000000000000 ) ) ;
#212 = ADVANCED_BREP_SHAPE_REPRESENTATION ( '55384', ( #15, #17, #60 ), #134 ) ;
#213 = EDGE_CURVE ( 'NONE', #179, #179, #81, .T. ) ;
#214 = CALENDAR_DATE ( 2021, 8, 10 ) ;
#215 = DIRECTION ( 'NONE',  ( 1.000000000000000000, 0.0000000000000000000, 0.0000000000000000000 ) ) ;
#216 = LOCAL_TIME ( 7, 15, 17.00000000000000000, #5 ) ;
#217 = CC_DESIGN_PERSON_AND_ORGANIZATION_ASSIGNMENT ( #43, #178, ( #92 ) ) ;
#218 = FACE_OUTER_BOUND ( 'NONE', #65, .T. ) ;
#219 = APPROVAL_DATE_TIME ( #36, #58 ) ;
#220 = ORIENTED_EDGE ( 'NONE', *, *, #115, .F. ) ;
#221 = AXIS2_PLACEMENT_3D ( 'NONE', #170, #83, #158 ) ;
#222 = CARTESIAN_POINT ( 'NONE',  ( 3.491481338843133355E-14, -1.224646799147353256E-15, 10.00000000000000000 ) ) ;
#223 = PERSON_AND_ORGANIZATION ( #102, #209 ) ;
ENDSEC;
END-ISO-10303-21;
