ISO-10303-21;
HEADER;
FILE_DESCRIPTION (( 'STEP AP203' ),
    '1' );
FILE_NAME ('55383.step',
    '2021-10-08T05:15:16',
    ( '' ),
    ( '' ),
    'SwSTEP 2.0',
    'SolidWorks 2019',
    '' );
FILE_SCHEMA (( 'CONFIG_CONTROL_DESIGN' ));
ENDSEC;

DATA;
#1 = PRODUCT_DEFINITION_FORMATION_WITH_SPECIFIED_SOURCE ( 'ANY', '', #22, .NOT_KNOWN. ) ;
#2 = DATE_AND_TIME ( #54, #128 ) ;
#3 = EDGE_LOOP ( 'NONE', ( #87 ) ) ;
#4 = EDGE_LOOP ( 'NONE', ( #24 ) ) ;
#5 = ORGANIZATION ( 'UNSPECIFIED', 'UNSPECIFIED', '' ) ;
#6 = FACE_BOUND ( 'NONE', #3, .T. ) ;
#7 = FACE_OUTER_BOUND ( 'NONE', #43, .T. ) ;
#8 = CC_DESIGN_APPROVAL ( #110, ( #174 ) ) ;
#9 = DIRECTION ( 'NONE',  ( 0.0000000000000000000, 1.000000000000000000, 0.0000000000000000000 ) ) ;
#10 = ADVANCED_FACE ( 'NONE', ( #119 ), #26, .T. ) ;
#11 = CARTESIAN_POINT ( 'NONE',  ( 3.491481338843133986E-14, -2.075306419378591507E-31, 10.00000000000000178 ) ) ;
#12 = CARTESIAN_POINT ( 'NONE',  ( 3.548931858032404044E-14, -1.244797728683126139E-15, 10.16454482671904103 ) ) ;
#13 = CARTESIAN_POINT ( 'NONE',  ( 1.374120333270214276E-15, 0.6549999999999988054, 0.3935637054630556908 ) ) ;
#14 = DIRECTION ( 'NONE',  ( 0.0000000000000000000, 0.0000000000000000000, 1.000000000000000000 ) ) ;
#15 = PERSON ( 'UNSPECIFIED', 'UNSPECIFIED', 'UNSPECIFIED', ('UNSPECIFIED'), ('UNSPECIFIED'), ('UNSPECIFIED') ) ;
#16 = VERTEX_POINT ( 'NONE', #156 ) ;
#17 = PERSON_AND_ORGANIZATION_ROLE ( 'design_owner' ) ;
#18 = PERSON_AND_ORGANIZATION ( #15, #5 ) ;
#19 = APPROVAL_PERSON_ORGANIZATION ( #136, #110, #138 ) ;
#20 = SECURITY_CLASSIFICATION ( '', '', #104 ) ;
#21 = EDGE_LOOP ( 'NONE', ( #183 ) ) ;
#22 = PRODUCT ( '55383', '55383', '', ( #141 ) ) ;
#23 = ADVANCED_FACE ( 'NONE', ( #147 ), #133, .F. ) ;
#24 = ORIENTED_EDGE ( 'NONE', *, *, #211, .F. ) ;
#25 = CC_DESIGN_APPROVAL ( #57, ( #20 ) ) ;
#26 = PLANE ( 'NONE',  #73 ) ;
#27 = DIRECTION ( 'NONE',  ( 0.0000000000000000000, -1.000000000000000000, 0.0000000000000000000 ) ) ;
#28 = PLANE ( 'NONE',  #70 ) ;
#29 = CIRCLE ( 'NONE', #198, 0.7499999999999975575 ) ;
#30 = DIRECTION ( 'NONE',  ( -3.491481338843133355E-15, 1.224646799147353207E-16, -1.000000000000000000 ) ) ;
#31 = CARTESIAN_POINT ( 'NONE',  ( 3.548931858032404044E-14, -1.244797728683126139E-15, 10.16454482671904103 ) ) ;
#32 = COORDINATED_UNIVERSAL_TIME_OFFSET ( 1, 0, .AHEAD. ) ;
#33 = CONICAL_SURFACE ( 'NONE', #199, 0.5500000000000000444, 0.7853981633974510546 ) ;
#34 = COORDINATED_UNIVERSAL_TIME_OFFSET ( 1, 0, .AHEAD. ) ;
#35 =( LENGTH_UNIT ( ) NAMED_UNIT ( * ) SI_UNIT ( .MILLI., .METRE. ) );
#36 = PERSON_AND_ORGANIZATION_ROLE ( 'design_supplier' ) ;
#37 = EDGE_CURVE ( 'NONE', #150, #150, #115, .T. ) ;
#38 = AXIS2_PLACEMENT_3D ( 'NONE', #101, #66, #46 ) ;
#39 = DATE_TIME_ROLE ( 'creation_date' ) ;
#40 = PERSON_AND_ORGANIZATION ( #15, #5 ) ;
#41 = EDGE_LOOP ( 'NONE', ( #114 ) ) ;
#42 = CC_DESIGN_PERSON_AND_ORGANIZATION_ASSIGNMENT ( #177, #210, ( #20 ) ) ;
#43 = EDGE_LOOP ( 'NONE', ( #113 ) ) ;
#44 = FACE_OUTER_BOUND ( 'NONE', #4, .T. ) ;
#45 = CYLINDRICAL_SURFACE ( 'NONE', #148, 0.6549999999999994715 ) ;
#46 = DIRECTION ( 'NONE',  ( 0.0000000000000000000, 1.000000000000000000, 0.0000000000000000000 ) ) ;
#47 = DIRECTION ( 'NONE',  ( -3.491481338843133355E-15, 1.224646799147353207E-16, -1.000000000000000000 ) ) ;
#48 = AXIS2_PLACEMENT_3D ( 'NONE', #116, #94, #168 ) ;
#49 = DIRECTION ( 'NONE',  ( 4.275831445896958607E-31, 1.000000000000000000, 1.224646799147353207E-16 ) ) ;
#50 = CIRCLE ( 'NONE', #53, 0.6550000000000001377 ) ;
#51 = VERTEX_POINT ( 'NONE', #206 ) ;
#52 = DATE_AND_TIME ( #209, #191 ) ;
#53 = AXIS2_PLACEMENT_3D ( 'NONE', #188, #47, #189 ) ;
#54 = CALENDAR_DATE ( 2021, 8, 10 ) ;
#55 = APPROVAL_DATE_TIME ( #2, #57 ) ;
#56 = CC_DESIGN_DATE_AND_TIME_ASSIGNMENT ( #125, #39, ( #174 ) ) ;
#57 = APPROVAL ( #212, 'UNSPECIFIED' ) ;
#58 = CIRCLE ( 'NONE', #144, 0.6550000000000001377 ) ;
#59 = EDGE_LOOP ( 'NONE', ( #163 ) ) ;
#60 = DIRECTION ( 'NONE',  ( 0.0000000000000000000, 1.000000000000000000, 0.0000000000000000000 ) ) ;
#61 = APPROVAL_PERSON_ORGANIZATION ( #40, #57, #129 ) ;
#62 = CARTESIAN_POINT ( 'NONE',  ( 3.491481338843133986E-14, -2.075306419378591507E-31, 10.00000000000000178 ) ) ;
#63 = CARTESIAN_POINT ( 'NONE',  ( 1.374120333270214079E-15, -4.819765321559028076E-17, 0.3935637054630556353 ) ) ;
#64 = EDGE_CURVE ( 'NONE', #142, #142, #58, .T. ) ;
#65 = CC_DESIGN_PERSON_AND_ORGANIZATION_ASSIGNMENT ( #193, #126, ( #174 ) ) ;
#66 = DIRECTION ( 'NONE',  ( -3.491481338843133355E-15, 1.224646799147353207E-16, -1.000000000000000000 ) ) ;
#67 = APPROVAL_PERSON_ORGANIZATION ( #18, #140, #195 ) ;
#68 = ADVANCED_FACE ( 'NONE', ( #118, #155 ), #130, .T. ) ;
#69 =( NAMED_UNIT ( * ) SI_UNIT ( $, .STERADIAN. ) SOLID_ANGLE_UNIT ( ) );
#70 = AXIS2_PLACEMENT_3D ( 'NONE', #11, #216, #153 ) ;
#71 = DIRECTION ( 'NONE',  ( 1.000000000000000000, 0.0000000000000000000, 0.0000000000000000000 ) ) ;
#72 = CARTESIAN_POINT ( 'NONE',  ( 1.040461438975253740E-13, 0.7499999999999962252, 29.80000000000000071 ) ) ;
#73 = AXIS2_PLACEMENT_3D ( 'NONE', #62, #202, #100 ) ;
#74 = ORIENTED_EDGE ( 'NONE', *, *, #196, .F. ) ;
#75 = CARTESIAN_POINT ( 'NONE',  ( 1.047444401652940007E-13, -3.673940397442059178E-15, 30.00000000000000000 ) ) ;
#76 = CLOSED_SHELL ( 'NONE', ( #173, #92, #10 ) ) ;
#77 = DIRECTION ( 'NONE',  ( -3.491481338843133355E-15, 1.224646799147353207E-16, -1.000000000000000000 ) ) ;
#78 = CARTESIAN_POINT ( 'NONE',  ( 3.491481338843133986E-14, -1.224646799147353454E-15, 10.00000000000000178 ) ) ;
#79 = CARTESIAN_POINT ( 'NONE',  ( 1.047444401652940007E-13, -3.673940397442059178E-15, 30.00000000000000000 ) ) ;
#80 = DIRECTION ( 'NONE',  ( 4.275831445896958607E-31, 1.000000000000000000, 1.224646799147353207E-16 ) ) ;
#81 = AXIS2_PLACEMENT_3D ( 'NONE', #171, #117, #185 ) ;
#82 = PRODUCT_RELATED_PRODUCT_CATEGORY ( 'detail', '', ( #22 ) ) ;
#83 = COORDINATED_UNIVERSAL_TIME_OFFSET ( 1, 0, .AHEAD. ) ;
#84 = APPROVAL_STATUS ( 'not_yet_approved' ) ;
#85 = EDGE_LOOP ( 'NONE', ( #74 ) ) ;
#86 = LOCAL_TIME ( 7, 15, 16.00000000000000000, #181 ) ;
#87 = ORIENTED_EDGE ( 'NONE', *, *, #196, .T. ) ;
#88 = SHAPE_DEFINITION_REPRESENTATION ( #96, #164 ) ;
#89 = EDGE_LOOP ( 'NONE', ( #217 ) ) ;
#90 = LOCAL_TIME ( 7, 15, 16.00000000000000000, #83 ) ;
#91 = ORIENTED_EDGE ( 'NONE', *, *, #37, .F. ) ;
#92 = ADVANCED_FACE ( 'NONE', ( #7, #135 ), #45, .T. ) ;
#93 = CARTESIAN_POINT ( 'NONE',  ( 0.0000000000000000000, 0.0000000000000000000, 0.0000000000000000000 ) ) ;
#94 = DIRECTION ( 'NONE',  ( -3.491481338843133355E-15, 1.224646799147353207E-16, -1.000000000000000000 ) ) ;
#95 = CC_DESIGN_DATE_AND_TIME_ASSIGNMENT ( #111, #143, ( #20 ) ) ;
#96 = PRODUCT_DEFINITION_SHAPE ( 'NONE', 'NONE',  #174 ) ;
#97 = CC_DESIGN_PERSON_AND_ORGANIZATION_ASSIGNMENT ( #223, #17, ( #22 ) ) ;
#98 = CIRCLE ( 'NONE', #81, 0.6549999999999988054 ) ;
#99 = DIRECTION ( 'NONE',  ( -3.491481338843133355E-15, 1.224646799147353207E-16, -1.000000000000000000 ) ) ;
#100 = DIRECTION ( 'NONE',  ( -4.275831445896958607E-31, -1.000000000000000000, -1.224646799147353207E-16 ) ) ;
#101 = CARTESIAN_POINT ( 'NONE',  ( 1.040461438975253740E-13, -3.649447461459112464E-15, 29.80000000000000071 ) ) ;
#102 = DATE_AND_TIME ( #157, #90 ) ;
#103 = PERSON_AND_ORGANIZATION_ROLE ( 'creator' ) ;
#104 = SECURITY_CLASSIFICATION_LEVEL ( 'unclassified' ) ;
#105 = AXIS2_PLACEMENT_3D ( 'NONE', #123, #14, #71 ) ;
#106 =( NAMED_UNIT ( * ) PLANE_ANGLE_UNIT ( ) SI_UNIT ( $, .RADIAN. ) );
#107 = EDGE_CURVE ( 'NONE', #16, #16, #50, .T. ) ;
#108 = CALENDAR_DATE ( 2021, 8, 10 ) ;
#109 = APPLICATION_CONTEXT ( 'configuration controlled 3d designs of mechanical parts and assemblies' ) ;
#110 = APPROVAL ( #84, 'UNSPECIFIED' ) ;
#111 = DATE_AND_TIME ( #108, #86 ) ;
#112 = ORIENTED_EDGE ( 'NONE', *, *, #107, .T. ) ;
#113 = ORIENTED_EDGE ( 'NONE', *, *, #158, .F. ) ;
#114 = ORIENTED_EDGE ( 'NONE', *, *, #37, .T. ) ;
#115 = CIRCLE ( 'NONE', #38, 0.7499999999999998890 ) ;
#116 = CARTESIAN_POINT ( 'NONE',  ( 0.0000000000000000000, 0.0000000000000000000, 0.0000000000000000000 ) ) ;
#117 = DIRECTION ( 'NONE',  ( -3.491481338843133355E-15, 1.224646799147353207E-16, -1.000000000000000000 ) ) ;
#118 = FACE_BOUND ( 'NONE', #59, .T. ) ;
#119 = FACE_OUTER_BOUND ( 'NONE', #89, .T. ) ;
#120 = CYLINDRICAL_SURFACE ( 'NONE', #48, 0.7499999999999986677 ) ;
#121 = APPROVAL_DATE_TIME ( #102, #140 ) ;
#122 = APPLICATION_CONTEXT ( 'configuration controlled 3d designs of mechanical parts and assemblies' ) ;
#123 = CARTESIAN_POINT ( 'NONE',  ( 0.0000000000000000000, 0.0000000000000000000, 0.0000000000000000000 ) ) ;
#124 = AXIS2_PLACEMENT_3D ( 'NONE', #204, #151, #80 ) ;
#125 = DATE_AND_TIME ( #197, #134 ) ;
#126 = PERSON_AND_ORGANIZATION_ROLE ( 'creator' ) ;
#127 = CARTESIAN_POINT ( 'NONE',  ( 3.548931858032404044E-14, 0.7499999999999963363, 10.16454482671904103 ) ) ;
#128 = LOCAL_TIME ( 7, 15, 16.00000000000000000, #162 ) ;
#129 = APPROVAL_ROLE ( '' ) ;
#130 = CONICAL_SURFACE ( 'NONE', #165, 0.7499999999999975575, 0.5235987755982971503 ) ;
#131 = DIRECTION ( 'NONE',  ( -3.491481338843133355E-15, 1.224646799147353207E-16, -1.000000000000000000 ) ) ;
#132 = DIRECTION ( 'NONE',  ( -3.491481338843133355E-15, 1.224646799147353207E-16, -1.000000000000000000 ) ) ;
#133 = PLANE ( 'NONE',  #124 ) ;
#134 = LOCAL_TIME ( 7, 15, 16.00000000000000000, #34 ) ;
#135 = FACE_OUTER_BOUND ( 'NONE', #166, .T. ) ;
#136 = PERSON_AND_ORGANIZATION ( #15, #5 ) ;
#137 = UNCERTAINTY_MEASURE_WITH_UNIT (LENGTH_MEASURE( 1.000000000000000082E-05 ), #35, 'distance_accuracy_value', 'NONE');
#138 = APPROVAL_ROLE ( '' ) ;
#139 = VERTEX_POINT ( 'NONE', #13 ) ;
#140 = APPROVAL ( #160, 'UNSPECIFIED' ) ;
#141 = MECHANICAL_CONTEXT ( 'NONE', #109, 'mechanical' ) ;
#142 = VERTEX_POINT ( 'NONE', #220 ) ;
#143 = DATE_TIME_ROLE ( 'classification_date' ) ;
#144 = AXIS2_PLACEMENT_3D ( 'NONE', #78, #132, #219 ) ;
#145 = CLOSED_SHELL ( 'NONE', ( #152, #68, #208, #149, #23 ) ) ;
#146 = ORIENTED_EDGE ( 'NONE', *, *, #158, .T. ) ;
#147 = FACE_OUTER_BOUND ( 'NONE', #85, .T. ) ;
#148 = AXIS2_PLACEMENT_3D ( 'NONE', #93, #131, #49 ) ;
#149 = ADVANCED_FACE ( 'NONE', ( #167, #6 ), #33, .T. ) ;
#150 = VERTEX_POINT ( 'NONE', #72 ) ;
#151 = DIRECTION ( 'NONE',  ( -3.491481338843133355E-15, 1.224646799147353207E-16, -1.000000000000000000 ) ) ;
#152 = ADVANCED_FACE ( 'NONE', ( #201 ), #28, .F. ) ;
#153 = DIRECTION ( 'NONE',  ( -4.275831445896958607E-31, -1.000000000000000000, -1.224646799147353207E-16 ) ) ;
#154 = CC_DESIGN_SECURITY_CLASSIFICATION ( #20, ( #1 ) ) ;
#155 = FACE_OUTER_BOUND ( 'NONE', #21, .T. ) ;
#156 = CARTESIAN_POINT ( 'NONE',  ( 3.491481338843133986E-14, 0.6549999999999989164, 10.00000000000000178 ) ) ;
#157 = CALENDAR_DATE ( 2021, 8, 10 ) ;
#158 = EDGE_CURVE ( 'NONE', #139, #139, #98, .T. ) ;
#159 = VERTEX_POINT ( 'NONE', #127 ) ;
#160 = APPROVAL_STATUS ( 'not_yet_approved' ) ;
#161 = AXIS2_PLACEMENT_3D ( 'NONE', #63, #170, #200 ) ;
#162 = COORDINATED_UNIVERSAL_TIME_OFFSET ( 1, 0, .AHEAD. ) ;
#163 = ORIENTED_EDGE ( 'NONE', *, *, #107, .F. ) ;
#164 = ADVANCED_BREP_SHAPE_REPRESENTATION ( '55383', ( #192, #194, #105 ), #182 ) ;
#165 = AXIS2_PLACEMENT_3D ( 'NONE', #12, #169, #27 ) ;
#166 = EDGE_LOOP ( 'NONE', ( #184 ) ) ;
#167 = FACE_OUTER_BOUND ( 'NONE', #214, .T. ) ;
#168 = DIRECTION ( 'NONE',  ( 4.275831445896959482E-31, 1.000000000000000000, 1.224646799147353207E-16 ) ) ;
#169 = DIRECTION ( 'NONE',  ( 3.491481338843133355E-15, -1.224646799147353207E-16, 1.000000000000000000 ) ) ;
#170 = DIRECTION ( 'NONE',  ( 3.491481338843133355E-15, -1.224646799147353207E-16, 1.000000000000000000 ) ) ;
#171 = CARTESIAN_POINT ( 'NONE',  ( 1.374120333270214079E-15, -4.819765321559028076E-17, 0.3935637054630556353 ) ) ;
#172 = APPLICATION_PROTOCOL_DEFINITION ( 'international standard', 'config_control_design', 1994, #109 ) ;
#173 = ADVANCED_FACE ( 'NONE', ( #203 ), #178, .T. ) ;
#174 = PRODUCT_DEFINITION ( 'UNKNOWN', '', #1, #190 ) ;
#175 = CC_DESIGN_PERSON_AND_ORGANIZATION_ASSIGNMENT ( #221, #36, ( #1 ) ) ;
#176 = PERSON_AND_ORGANIZATION ( #15, #5 ) ;
#177 = PERSON_AND_ORGANIZATION ( #15, #5 ) ;
#178 = CONICAL_SURFACE ( 'NONE', #161, 0.6549999999999988054, 1.029744258676649649 ) ;
#179 = APPROVAL_DATE_TIME ( #52, #110 ) ;
#180 = EDGE_LOOP ( 'NONE', ( #146 ) ) ;
#181 = COORDINATED_UNIVERSAL_TIME_OFFSET ( 1, 0, .AHEAD. ) ;
#182 =( GEOMETRIC_REPRESENTATION_CONTEXT ( 3 ) GLOBAL_UNCERTAINTY_ASSIGNED_CONTEXT ( ( #137 ) ) GLOBAL_UNIT_ASSIGNED_CONTEXT ( ( #35, #106, #69 ) ) REPRESENTATION_CONTEXT ( 'NONE', 'WORKASPACE' ) );
#183 = ORIENTED_EDGE ( 'NONE', *, *, #211, .T. ) ;
#184 = ORIENTED_EDGE ( 'NONE', *, *, #64, .T. ) ;
#185 = DIRECTION ( 'NONE',  ( 2.940351060133189720E-31, 1.000000000000000000, 8.276352461721422562E-17 ) ) ;
#186 = DIRECTION ( 'NONE',  ( 0.0000000000000000000, 1.000000000000000000, 0.0000000000000000000 ) ) ;
#187 = CIRCLE ( 'NONE', #222, 0.5500000000000000444 ) ;
#188 = CARTESIAN_POINT ( 'NONE',  ( 3.491481338843133986E-14, -1.224646799147353454E-15, 10.00000000000000178 ) ) ;
#189 = DIRECTION ( 'NONE',  ( 0.0000000000000000000, 1.000000000000000000, 0.0000000000000000000 ) ) ;
#190 = DESIGN_CONTEXT ( 'detailed design', #122, 'design' ) ;
#191 = LOCAL_TIME ( 7, 15, 16.00000000000000000, #32 ) ;
#192 = MANIFOLD_SOLID_BREP ( 'Corps-Déplacer/Copier1[1]', #145 ) ;
#193 = PERSON_AND_ORGANIZATION ( #15, #5 ) ;
#194 = MANIFOLD_SOLID_BREP ( 'Corps-Déplacer/Copier1[2]', #76 ) ;
#195 = APPROVAL_ROLE ( '' ) ;
#196 = EDGE_CURVE ( 'NONE', #51, #51, #187, .T. ) ;
#197 = CALENDAR_DATE ( 2021, 8, 10 ) ;
#198 = AXIS2_PLACEMENT_3D ( 'NONE', #31, #77, #9 ) ;
#199 = AXIS2_PLACEMENT_3D ( 'NONE', #75, #30, #60 ) ;
#200 = DIRECTION ( 'NONE',  ( -2.940351060133189720E-31, -1.000000000000000000, -8.276352461721422562E-17 ) ) ;
#201 = FACE_OUTER_BOUND ( 'NONE', #213, .T. ) ;
#202 = DIRECTION ( 'NONE',  ( 3.491481338843133355E-15, -1.224646799147353207E-16, 1.000000000000000000 ) ) ;
#203 = FACE_OUTER_BOUND ( 'NONE', #180, .T. ) ;
#204 = CARTESIAN_POINT ( 'NONE',  ( 1.047444401652940007E-13, 4.124339402320052999E-33, 30.00000000000000000 ) ) ;
#205 = CC_DESIGN_PERSON_AND_ORGANIZATION_ASSIGNMENT ( #176, #103, ( #1 ) ) ;
#206 = CARTESIAN_POINT ( 'NONE',  ( 1.047444401652940007E-13, 0.5499999999999963807, 30.00000000000000000 ) ) ;
#207 = APPLICATION_PROTOCOL_DEFINITION ( 'international standard', 'config_control_design', 1994, #122 ) ;
#208 = ADVANCED_FACE ( 'NONE', ( #44, #215 ), #120, .T. ) ;
#209 = CALENDAR_DATE ( 2021, 8, 10 ) ;
#210 = PERSON_AND_ORGANIZATION_ROLE ( 'classification_officer' ) ;
#211 = EDGE_CURVE ( 'NONE', #159, #159, #29, .T. ) ;
#212 = APPROVAL_STATUS ( 'not_yet_approved' ) ;
#213 = EDGE_LOOP ( 'NONE', ( #112 ) ) ;
#214 = EDGE_LOOP ( 'NONE', ( #91 ) ) ;
#215 = FACE_OUTER_BOUND ( 'NONE', #41, .T. ) ;
#216 = DIRECTION ( 'NONE',  ( 3.491481338843133355E-15, -1.224646799147353207E-16, 1.000000000000000000 ) ) ;
#217 = ORIENTED_EDGE ( 'NONE', *, *, #64, .F. ) ;
#218 = CC_DESIGN_APPROVAL ( #140, ( #1 ) ) ;
#219 = DIRECTION ( 'NONE',  ( 0.0000000000000000000, 1.000000000000000000, 0.0000000000000000000 ) ) ;
#220 = CARTESIAN_POINT ( 'NONE',  ( 3.491481338843133986E-14, 0.6549999999999989164, 10.00000000000000178 ) ) ;
#221 = PERSON_AND_ORGANIZATION ( #15, #5 ) ;
#222 = AXIS2_PLACEMENT_3D ( 'NONE', #79, #99, #186 ) ;
#223 = PERSON_AND_ORGANIZATION ( #15, #5 ) ;
ENDSEC;
END-ISO-10303-21;
