ISO-10303-21;
HEADER;
FILE_DESCRIPTION (( 'STEP AP203' ),
    '1' );
FILE_NAME ('55382.step',
    '2021-10-08T05:15:15',
    ( '' ),
    ( '' ),
    'SwSTEP 2.0',
    'SolidWorks 2019',
    '' );
FILE_SCHEMA (( 'CONFIG_CONTROL_DESIGN' ));
ENDSEC;

DATA;
#1 = EDGE_LOOP ( 'NONE', ( #204 ) ) ;
#2 = DIRECTION ( 'NONE',  ( 0.0000000000000000000, 0.0000000000000000000, 1.000000000000000000 ) ) ;
#3 = DIRECTION ( 'NONE',  ( 1.000000000000000000, 0.0000000000000000000, 0.0000000000000000000 ) ) ;
#4 = PRODUCT ( '55382', '55382', '', ( #67 ) ) ;
#5 = CARTESIAN_POINT ( 'NONE',  ( 1.040461438975253740E-13, 0.7499999999999962252, 29.80000000000000071 ) ) ;
#6 = AXIS2_PLACEMENT_3D ( 'NONE', #120, #31, #100 ) ;
#7 = CALENDAR_DATE ( 2021, 8, 10 ) ;
#8 = ORIENTED_EDGE ( 'NONE', *, *, #123, .T. ) ;
#9 = ADVANCED_BREP_SHAPE_REPRESENTATION ( '55382', ( #110, #189, #198 ), #66 ) ;
#10 = LOCAL_TIME ( 7, 15, 15.00000000000000000, #72 ) ;
#11 = PLANE ( 'NONE',  #52 ) ;
#12 = DIRECTION ( 'NONE',  ( 3.491481338843133355E-15, -1.224646799147353207E-16, 1.000000000000000000 ) ) ;
#13 = ADVANCED_FACE ( 'NONE', ( #188, #186 ), #15, .T. ) ;
#14 = DIRECTION ( 'NONE',  ( 0.0000000000000000000, 1.000000000000000000, 0.0000000000000000000 ) ) ;
#15 = CONICAL_SURFACE ( 'NONE', #141, 0.5500000000000000444, 0.7853981633974510546 ) ;
#16 = ORIENTED_EDGE ( 'NONE', *, *, #221, .T. ) ;
#17 = ORIENTED_EDGE ( 'NONE', *, *, #206, .T. ) ;
#18 = CC_DESIGN_DATE_AND_TIME_ASSIGNMENT ( #97, #23, ( #168 ) ) ;
#19 = DIRECTION ( 'NONE',  ( -3.491481338843133355E-15, 1.224646799147353207E-16, -1.000000000000000000 ) ) ;
#20 = CARTESIAN_POINT ( 'NONE',  ( 1.047444401652940007E-13, 0.5499999999999963807, 30.00000000000000000 ) ) ;
#21 = LOCAL_TIME ( 7, 15, 15.00000000000000000, #56 ) ;
#22 = VERTEX_POINT ( 'NONE', #20 ) ;
#23 = DATE_TIME_ROLE ( 'creation_date' ) ;
#24 = APPROVAL_ROLE ( '' ) ;
#25 = CALENDAR_DATE ( 2021, 8, 10 ) ;
#26 = AXIS2_PLACEMENT_3D ( 'NONE', #154, #218, #14 ) ;
#27 = ADVANCED_FACE ( 'NONE', ( #32, #173 ), #63, .T. ) ;
#28 = SHAPE_DEFINITION_REPRESENTATION ( #93, #9 ) ;
#29 = DIRECTION ( 'NONE',  ( 2.962969145211137539E-31, 1.000000000000000000, 8.340016711426972545E-17 ) ) ;
#30 = EDGE_LOOP ( 'NONE', ( #80 ) ) ;
#31 = DIRECTION ( 'NONE',  ( 3.491481338843133355E-15, -1.224646799147353207E-16, 1.000000000000000000 ) ) ;
#32 = FACE_OUTER_BOUND ( 'NONE', #99, .T. ) ;
#33 = APPLICATION_CONTEXT ( 'configuration controlled 3d designs of mechanical parts and assemblies' ) ;
#34 = ADVANCED_FACE ( 'NONE', ( #102 ), #86, .T. ) ;
#35 = APPROVAL_PERSON_ORGANIZATION ( #43, #64, #24 ) ;
#36 = CARTESIAN_POINT ( 'NONE',  ( 3.491481338843133355E-14, 4.874219293651018751E-33, 10.00000000000000000 ) ) ;
#37 = EDGE_CURVE ( 'NONE', #148, #148, #113, .T. ) ;
#38 = DIRECTION ( 'NONE',  ( -3.491481338843133355E-15, 1.224646799147353207E-16, -1.000000000000000000 ) ) ;
#39 = DIRECTION ( 'NONE',  ( 0.0000000000000000000, 1.000000000000000000, 0.0000000000000000000 ) ) ;
#40 = ADVANCED_FACE ( 'NONE', ( #171 ), #79, .F. ) ;
#41 = CC_DESIGN_APPROVAL ( #150, ( #122 ) ) ;
#42 = PERSON_AND_ORGANIZATION_ROLE ( 'creator' ) ;
#43 = PERSON_AND_ORGANIZATION ( #105, #117 ) ;
#44 = APPROVAL_DATE_TIME ( #55, #150 ) ;
#45 = DIRECTION ( 'NONE',  ( -3.491481338843133355E-15, 1.224646799147353207E-16, -1.000000000000000000 ) ) ;
#46 = EDGE_LOOP ( 'NONE', ( #8 ) ) ;
#47 = DIRECTION ( 'NONE',  ( -3.491481338843133355E-15, 1.224646799147353207E-16, -1.000000000000000000 ) ) ;
#48 = DIRECTION ( 'NONE',  ( 0.0000000000000000000, 1.000000000000000000, 0.0000000000000000000 ) ) ;
#49 = APPROVAL_PERSON_ORGANIZATION ( #169, #150, #167 ) ;
#50 = PERSON_AND_ORGANIZATION_ROLE ( 'design_owner' ) ;
#51 = DIRECTION ( 'NONE',  ( -3.491481338843133355E-15, 1.224646799147353207E-16, -1.000000000000000000 ) ) ;
#52 = AXIS2_PLACEMENT_3D ( 'NONE', #78, #156, #62 ) ;
#53 = COORDINATED_UNIVERSAL_TIME_OFFSET ( 1, 0, .AHEAD. ) ;
#54 = FACE_OUTER_BOUND ( 'NONE', #1, .T. ) ;
#55 = DATE_AND_TIME ( #130, #10 ) ;
#56 = COORDINATED_UNIVERSAL_TIME_OFFSET ( 1, 0, .AHEAD. ) ;
#57 = CC_DESIGN_APPROVAL ( #64, ( #133 ) ) ;
#58 = ADVANCED_FACE ( 'NONE', ( #201 ), #11, .F. ) ;
#59 = FACE_OUTER_BOUND ( 'NONE', #205, .T. ) ;
#60 = EDGE_LOOP ( 'NONE', ( #202 ) ) ;
#61 = APPROVAL_PERSON_ORGANIZATION ( #143, #71, #108 ) ;
#62 = DIRECTION ( 'NONE',  ( 4.275831445896958607E-31, 1.000000000000000000, 1.224646799147353207E-16 ) ) ;
#63 = CYLINDRICAL_SURFACE ( 'NONE', #209, 0.7499999999999986677 ) ;
#64 = APPROVAL ( #134, 'UNSPECIFIED' ) ;
#65 = ORIENTED_EDGE ( 'NONE', *, *, #221, .F. ) ;
#66 =( GEOMETRIC_REPRESENTATION_CONTEXT ( 3 ) GLOBAL_UNCERTAINTY_ASSIGNED_CONTEXT ( ( #217 ) ) GLOBAL_UNIT_ASSIGNED_CONTEXT ( ( #196, #162, #126 ) ) REPRESENTATION_CONTEXT ( 'NONE', 'WORKASPACE' ) );
#67 = MECHANICAL_CONTEXT ( 'NONE', #33, 'mechanical' ) ;
#68 = PERSON_AND_ORGANIZATION ( #105, #117 ) ;
#69 = AXIS2_PLACEMENT_3D ( 'NONE', #125, #163, #87 ) ;
#70 = DIRECTION ( 'NONE',  ( 0.0000000000000000000, 1.000000000000000000, 0.0000000000000000000 ) ) ;
#71 = APPROVAL ( #194, 'UNSPECIFIED' ) ;
#72 = COORDINATED_UNIVERSAL_TIME_OFFSET ( 1, 0, .AHEAD. ) ;
#73 = COORDINATED_UNIVERSAL_TIME_OFFSET ( 1, 0, .AHEAD. ) ;
#74 = PERSON_AND_ORGANIZATION ( #105, #117 ) ;
#75 = EDGE_CURVE ( 'NONE', #208, #208, #131, .T. ) ;
#76 = AXIS2_PLACEMENT_3D ( 'NONE', #98, #12, #83 ) ;
#77 = CC_DESIGN_SECURITY_CLASSIFICATION ( #122, ( #133 ) ) ;
#78 = CARTESIAN_POINT ( 'NONE',  ( 1.047444401652940007E-13, 4.124339402320052999E-33, 30.00000000000000000 ) ) ;
#79 = PLANE ( 'NONE',  #85 ) ;
#80 = ORIENTED_EDGE ( 'NONE', *, *, #75, .F. ) ;
#81 = CIRCLE ( 'NONE', #107, 0.6499999999999999112 ) ;
#82 = EDGE_LOOP ( 'NONE', ( #16 ) ) ;
#83 = DIRECTION ( 'NONE',  ( -2.962969145211137539E-31, -1.000000000000000000, -8.340016711426972545E-17 ) ) ;
#84 = CARTESIAN_POINT ( 'NONE',  ( 1.363630865077311993E-15, 0.6499999999999988010, 0.3905594023679178628 ) ) ;
#85 = AXIS2_PLACEMENT_3D ( 'NONE', #137, #222, #118 ) ;
#86 = CONICAL_SURFACE ( 'NONE', #76, 0.6499999999999988010, 1.029744258676649649 ) ;
#87 = DIRECTION ( 'NONE',  ( 0.0000000000000000000, 1.000000000000000000, 0.0000000000000000000 ) ) ;
#88 = CARTESIAN_POINT ( 'NONE',  ( 3.491481338843133355E-14, 0.6499999999999986899, 10.00000000000000000 ) ) ;
#89 = CLOSED_SHELL ( 'NONE', ( #40, #96, #27, #13, #58 ) ) ;
#90 = CC_DESIGN_DATE_AND_TIME_ASSIGNMENT ( #199, #166, ( #122 ) ) ;
#91 = DATE_AND_TIME ( #132, #165 ) ;
#92 = APPROVAL_STATUS ( 'not_yet_approved' ) ;
#93 = PRODUCT_DEFINITION_SHAPE ( 'NONE', 'NONE',  #168 ) ;
#94 = CIRCLE ( 'NONE', #69, 0.7499999999999998890 ) ;
#95 = PERSON_AND_ORGANIZATION_ROLE ( 'classification_officer' ) ;
#96 = ADVANCED_FACE ( 'NONE', ( #187, #59 ), #213, .T. ) ;
#97 = DATE_AND_TIME ( #25, #146 ) ;
#98 = CARTESIAN_POINT ( 'NONE',  ( 1.363630865077311795E-15, -4.782973219867737419E-17, 0.3905594023679178073 ) ) ;
#99 = EDGE_LOOP ( 'NONE', ( #160 ) ) ;
#100 = DIRECTION ( 'NONE',  ( 0.0000000000000000000, -1.000000000000000000, 0.0000000000000000000 ) ) ;
#101 = ORIENTED_EDGE ( 'NONE', *, *, #37, .T. ) ;
#102 = FACE_OUTER_BOUND ( 'NONE', #223, .T. ) ;
#103 = DIRECTION ( 'NONE',  ( 0.0000000000000000000, 1.000000000000000000, 0.0000000000000000000 ) ) ;
#104 = DIRECTION ( 'NONE',  ( 3.491481338843133355E-15, -1.224646799147353207E-16, 1.000000000000000000 ) ) ;
#105 = PERSON ( 'UNSPECIFIED', 'UNSPECIFIED', 'UNSPECIFIED', ('UNSPECIFIED'), ('UNSPECIFIED'), ('UNSPECIFIED') ) ;
#106 = CC_DESIGN_PERSON_AND_ORGANIZATION_ASSIGNMENT ( #214, #197, ( #133 ) ) ;
#107 = AXIS2_PLACEMENT_3D ( 'NONE', #112, #19, #70 ) ;
#108 = APPROVAL_ROLE ( '' ) ;
#109 = CARTESIAN_POINT ( 'NONE',  ( 3.551955569568682180E-14, 0.7499999999999963363, 10.17320508075688679 ) ) ;
#110 = MANIFOLD_SOLID_BREP ( 'Corps-Déplacer/Copier1[1]', #89 ) ;
#111 = CC_DESIGN_PERSON_AND_ORGANIZATION_ASSIGNMENT ( #74, #42, ( #168 ) ) ;
#112 = CARTESIAN_POINT ( 'NONE',  ( 3.491481338843133355E-14, -1.224646799147353256E-15, 10.00000000000000000 ) ) ;
#113 = CIRCLE ( 'NONE', #174, 0.6499999999999988010 ) ;
#114 = APPROVAL_DATE_TIME ( #91, #64 ) ;
#115 = CC_DESIGN_PERSON_AND_ORGANIZATION_ASSIGNMENT ( #185, #95, ( #122 ) ) ;
#116 = PRODUCT_RELATED_PRODUCT_CATEGORY ( 'detail', '', ( #4 ) ) ;
#117 = ORGANIZATION ( 'UNSPECIFIED', 'UNSPECIFIED', '' ) ;
#118 = DIRECTION ( 'NONE',  ( -4.275831445896958607E-31, -1.000000000000000000, -1.224646799147353207E-16 ) ) ;
#119 = EDGE_CURVE ( 'NONE', #207, #207, #157, .T. ) ;
#120 = CARTESIAN_POINT ( 'NONE',  ( 3.551955569568682180E-14, -1.245858303921851380E-15, 10.17320508075688679 ) ) ;
#121 = DIRECTION ( 'NONE',  ( -3.491481338843133355E-15, 1.224646799147353207E-16, -1.000000000000000000 ) ) ;
#122 = SECURITY_CLASSIFICATION ( '', '', #151 ) ;
#123 = EDGE_CURVE ( 'NONE', #180, #180, #81, .T. ) ;
#124 = CARTESIAN_POINT ( 'NONE',  ( 1.363630865077311795E-15, -4.782973219867737419E-17, 0.3905594023679178073 ) ) ;
#125 = CARTESIAN_POINT ( 'NONE',  ( 1.040461438975253740E-13, -3.649447461459112464E-15, 29.80000000000000071 ) ) ;
#126 =( NAMED_UNIT ( * ) SI_UNIT ( $, .STERADIAN. ) SOLID_ANGLE_UNIT ( ) );
#127 = CLOSED_SHELL ( 'NONE', ( #34, #159, #145 ) ) ;
#128 = CYLINDRICAL_SURFACE ( 'NONE', #178, 0.6499999999999993561 ) ;
#129 = DIRECTION ( 'NONE',  ( 4.275831445896958607E-31, 1.000000000000000000, 1.224646799147353207E-16 ) ) ;
#130 = CALENDAR_DATE ( 2021, 8, 10 ) ;
#131 = CIRCLE ( 'NONE', #26, 0.6499999999999999112 ) ;
#132 = CALENDAR_DATE ( 2021, 8, 10 ) ;
#133 = PRODUCT_DEFINITION_FORMATION_WITH_SPECIFIED_SOURCE ( 'ANY', '', #4, .NOT_KNOWN. ) ;
#134 = APPROVAL_STATUS ( 'not_yet_approved' ) ;
#135 = EDGE_LOOP ( 'NONE', ( #65 ) ) ;
#136 = AXIS2_PLACEMENT_3D ( 'NONE', #211, #38, #103 ) ;
#137 = CARTESIAN_POINT ( 'NONE',  ( 3.491481338843133355E-14, 4.874219293651018751E-33, 10.00000000000000000 ) ) ;
#138 = CARTESIAN_POINT ( 'NONE',  ( 3.551955569568682180E-14, -1.245858303921851380E-15, 10.17320508075688679 ) ) ;
#139 = CARTESIAN_POINT ( 'NONE',  ( 0.0000000000000000000, 0.0000000000000000000, 0.0000000000000000000 ) ) ;
#140 = ORIENTED_EDGE ( 'NONE', *, *, #119, .T. ) ;
#141 = AXIS2_PLACEMENT_3D ( 'NONE', #219, #47, #48 ) ;
#142 = APPLICATION_CONTEXT ( 'configuration controlled 3d designs of mechanical parts and assemblies' ) ;
#143 = PERSON_AND_ORGANIZATION ( #105, #117 ) ;
#144 = APPLICATION_PROTOCOL_DEFINITION ( 'international standard', 'config_control_design', 1994, #142 ) ;
#145 = ADVANCED_FACE ( 'NONE', ( #54 ), #210, .T. ) ;
#146 = LOCAL_TIME ( 7, 15, 15.00000000000000000, #215 ) ;
#147 = DIRECTION ( 'NONE',  ( -4.275831445896958607E-31, -1.000000000000000000, -1.224646799147353207E-16 ) ) ;
#148 = VERTEX_POINT ( 'NONE', #84 ) ;
#149 = CIRCLE ( 'NONE', #136, 0.5500000000000000444 ) ;
#150 = APPROVAL ( #92, 'UNSPECIFIED' ) ;
#151 = SECURITY_CLASSIFICATION_LEVEL ( 'unclassified' ) ;
#152 = AXIS2_PLACEMENT_3D ( 'NONE', #138, #158, #39 ) ;
#153 = PERSON_AND_ORGANIZATION_ROLE ( 'design_supplier' ) ;
#154 = CARTESIAN_POINT ( 'NONE',  ( 3.491481338843133355E-14, -1.224646799147353256E-15, 10.00000000000000000 ) ) ;
#155 = CC_DESIGN_PERSON_AND_ORGANIZATION_ASSIGNMENT ( #170, #153, ( #133 ) ) ;
#156 = DIRECTION ( 'NONE',  ( -3.491481338843133355E-15, 1.224646799147353207E-16, -1.000000000000000000 ) ) ;
#157 = CIRCLE ( 'NONE', #152, 0.7499999999999975575 ) ;
#158 = DIRECTION ( 'NONE',  ( -3.491481338843133355E-15, 1.224646799147353207E-16, -1.000000000000000000 ) ) ;
#159 = ADVANCED_FACE ( 'NONE', ( #177, #192 ), #128, .T. ) ;
#160 = ORIENTED_EDGE ( 'NONE', *, *, #119, .F. ) ;
#161 = EDGE_LOOP ( 'NONE', ( #17 ) ) ;
#162 =( NAMED_UNIT ( * ) PLANE_ANGLE_UNIT ( ) SI_UNIT ( $, .RADIAN. ) );
#163 = DIRECTION ( 'NONE',  ( -3.491481338843133355E-15, 1.224646799147353207E-16, -1.000000000000000000 ) ) ;
#164 = VERTEX_POINT ( 'NONE', #5 ) ;
#165 = LOCAL_TIME ( 7, 15, 15.00000000000000000, #73 ) ;
#166 = DATE_TIME_ROLE ( 'classification_date' ) ;
#167 = APPROVAL_ROLE ( '' ) ;
#168 = PRODUCT_DEFINITION ( 'UNKNOWN', '', #133, #200 ) ;
#169 = PERSON_AND_ORGANIZATION ( #105, #117 ) ;
#170 = PERSON_AND_ORGANIZATION ( #105, #117 ) ;
#171 = FACE_OUTER_BOUND ( 'NONE', #203, .T. ) ;
#172 = EDGE_LOOP ( 'NONE', ( #175 ) ) ;
#173 = FACE_OUTER_BOUND ( 'NONE', #82, .T. ) ;
#174 = AXIS2_PLACEMENT_3D ( 'NONE', #124, #45, #29 ) ;
#175 = ORIENTED_EDGE ( 'NONE', *, *, #37, .F. ) ;
#176 = ORIENTED_EDGE ( 'NONE', *, *, #75, .T. ) ;
#177 = FACE_OUTER_BOUND ( 'NONE', #172, .T. ) ;
#178 = AXIS2_PLACEMENT_3D ( 'NONE', #195, #51, #129 ) ;
#179 = CARTESIAN_POINT ( 'NONE',  ( 3.491481338843133355E-14, 0.6499999999999986899, 10.00000000000000000 ) ) ;
#180 = VERTEX_POINT ( 'NONE', #88 ) ;
#181 = APPROVAL_DATE_TIME ( #183, #71 ) ;
#182 = CC_DESIGN_PERSON_AND_ORGANIZATION_ASSIGNMENT ( #68, #50, ( #4 ) ) ;
#183 = DATE_AND_TIME ( #216, #184 ) ;
#184 = LOCAL_TIME ( 7, 15, 15.00000000000000000, #53 ) ;
#185 = PERSON_AND_ORGANIZATION ( #105, #117 ) ;
#186 = FACE_BOUND ( 'NONE', #161, .T. ) ;
#187 = FACE_BOUND ( 'NONE', #30, .T. ) ;
#188 = FACE_OUTER_BOUND ( 'NONE', #135, .T. ) ;
#189 = MANIFOLD_SOLID_BREP ( 'Corps-Déplacer/Copier1[2]', #127 ) ;
#190 = DIRECTION ( 'NONE',  ( 4.275831445896959482E-31, 1.000000000000000000, 1.224646799147353207E-16 ) ) ;
#191 = CARTESIAN_POINT ( 'NONE',  ( 0.0000000000000000000, 0.0000000000000000000, 0.0000000000000000000 ) ) ;
#192 = FACE_OUTER_BOUND ( 'NONE', #46, .T. ) ;
#193 = AXIS2_PLACEMENT_3D ( 'NONE', #36, #104, #147 ) ;
#194 = APPROVAL_STATUS ( 'not_yet_approved' ) ;
#195 = CARTESIAN_POINT ( 'NONE',  ( 0.0000000000000000000, 0.0000000000000000000, 0.0000000000000000000 ) ) ;
#196 =( LENGTH_UNIT ( ) NAMED_UNIT ( * ) SI_UNIT ( .MILLI., .METRE. ) );
#197 = PERSON_AND_ORGANIZATION_ROLE ( 'creator' ) ;
#198 = AXIS2_PLACEMENT_3D ( 'NONE', #191, #2, #3 ) ;
#199 = DATE_AND_TIME ( #7, #21 ) ;
#200 = DESIGN_CONTEXT ( 'detailed design', #142, 'design' ) ;
#201 = FACE_OUTER_BOUND ( 'NONE', #60, .T. ) ;
#202 = ORIENTED_EDGE ( 'NONE', *, *, #206, .F. ) ;
#203 = EDGE_LOOP ( 'NONE', ( #176 ) ) ;
#204 = ORIENTED_EDGE ( 'NONE', *, *, #123, .F. ) ;
#205 = EDGE_LOOP ( 'NONE', ( #140 ) ) ;
#206 = EDGE_CURVE ( 'NONE', #22, #22, #149, .T. ) ;
#207 = VERTEX_POINT ( 'NONE', #109 ) ;
#208 = VERTEX_POINT ( 'NONE', #179 ) ;
#209 = AXIS2_PLACEMENT_3D ( 'NONE', #139, #121, #190 ) ;
#210 = PLANE ( 'NONE',  #193 ) ;
#211 = CARTESIAN_POINT ( 'NONE',  ( 1.047444401652940007E-13, -3.673940397442059178E-15, 30.00000000000000000 ) ) ;
#212 = APPLICATION_PROTOCOL_DEFINITION ( 'international standard', 'config_control_design', 1994, #33 ) ;
#213 = CONICAL_SURFACE ( 'NONE', #6, 0.7499999999999975575, 0.5235987755982918213 ) ;
#214 = PERSON_AND_ORGANIZATION ( #105, #117 ) ;
#215 = COORDINATED_UNIVERSAL_TIME_OFFSET ( 1, 0, .AHEAD. ) ;
#216 = CALENDAR_DATE ( 2021, 8, 10 ) ;
#217 = UNCERTAINTY_MEASURE_WITH_UNIT (LENGTH_MEASURE( 1.000000000000000082E-05 ), #196, 'distance_accuracy_value', 'NONE');
#218 = DIRECTION ( 'NONE',  ( -3.491481338843133355E-15, 1.224646799147353207E-16, -1.000000000000000000 ) ) ;
#219 = CARTESIAN_POINT ( 'NONE',  ( 1.047444401652940007E-13, -3.673940397442059178E-15, 30.00000000000000000 ) ) ;
#220 = CC_DESIGN_APPROVAL ( #71, ( #168 ) ) ;
#221 = EDGE_CURVE ( 'NONE', #164, #164, #94, .T. ) ;
#222 = DIRECTION ( 'NONE',  ( 3.491481338843133355E-15, -1.224646799147353207E-16, 1.000000000000000000 ) ) ;
#223 = EDGE_LOOP ( 'NONE', ( #101 ) ) ;
ENDSEC;
END-ISO-10303-21;
