ISO-10303-21;
HEADER;
FILE_DESCRIPTION (( 'STEP AP203' ),
    '1' );
FILE_NAME ('55381.step',
    '2021-10-08T05:15:14',
    ( '' ),
    ( '' ),
    'SwSTEP 2.0',
    'SolidWorks 2019',
    '' );
FILE_SCHEMA (( 'CONFIG_CONTROL_DESIGN' ));
ENDSEC;

DATA;
#1 = APPLICATION_PROTOCOL_DEFINITION ( 'international standard', 'config_control_design', 1994, #114 ) ;
#2 = CONICAL_SURFACE ( 'NONE', #17, 0.6449999999999989075, 1.029744258676649649 ) ;
#3 = ORIENTED_EDGE ( 'NONE', *, *, #27, .T. ) ;
#4 = ORIENTED_EDGE ( 'NONE', *, *, #207, .F. ) ;
#5 = PRODUCT ( '55381', '55381', '', ( #194 ) ) ;
#6 = FACE_OUTER_BOUND ( 'NONE', #184, .T. ) ;
#7 = DIRECTION ( 'NONE',  ( 0.0000000000000000000, 1.000000000000000000, 0.0000000000000000000 ) ) ;
#8 =( NAMED_UNIT ( * ) PLANE_ANGLE_UNIT ( ) SI_UNIT ( $, .RADIAN. ) );
#9 = CARTESIAN_POINT ( 'NONE',  ( 1.353141396884409709E-15, -4.746181118176447994E-17, 0.3875550992727800903 ) ) ;
#10 = CARTESIAN_POINT ( 'NONE',  ( 1.040461438975253740E-13, -3.649447461459112464E-15, 29.80000000000000071 ) ) ;
#11 = APPROVAL_DATE_TIME ( #175, #154 ) ;
#12 = CALENDAR_DATE ( 2021, 8, 10 ) ;
#13 = AXIS2_PLACEMENT_3D ( 'NONE', #9, #19, #63 ) ;
#14 = ORIENTED_EDGE ( 'NONE', *, *, #193, .T. ) ;
#15 = ORIENTED_EDGE ( 'NONE', *, *, #200, .T. ) ;
#16 = DIRECTION ( 'NONE',  ( -4.275831445896958607E-31, -1.000000000000000000, -1.224646799147353207E-16 ) ) ;
#17 = AXIS2_PLACEMENT_3D ( 'NONE', #190, #44, #188 ) ;
#18 = VERTEX_POINT ( 'NONE', #92 ) ;
#19 = DIRECTION ( 'NONE',  ( -3.491481338843133355E-15, 1.224646799147353207E-16, -1.000000000000000000 ) ) ;
#20 = CARTESIAN_POINT ( 'NONE',  ( 1.040461438975253740E-13, 0.7499999999999962252, 29.80000000000000071 ) ) ;
#21 = DIRECTION ( 'NONE',  ( 4.275831445896958607E-31, 1.000000000000000000, 1.224646799147353207E-16 ) ) ;
#22 = AXIS2_PLACEMENT_3D ( 'NONE', #42, #137, #191 ) ;
#23 = AXIS2_PLACEMENT_3D ( 'NONE', #55, #128, #33 ) ;
#24 = DATE_AND_TIME ( #68, #140 ) ;
#25 = CALENDAR_DATE ( 2021, 8, 10 ) ;
#26 = COORDINATED_UNIVERSAL_TIME_OFFSET ( 1, 0, .AHEAD. ) ;
#27 = EDGE_CURVE ( 'NONE', #116, #116, #208, .T. ) ;
#28 = APPROVAL_DATE_TIME ( #50, #187 ) ;
#29 = CIRCLE ( 'NONE', #41, 0.5500000000000000444 ) ;
#30 = MANIFOLD_SOLID_BREP ( 'Corps-Déplacer/Copier1[1]', #183 ) ;
#31 = CC_DESIGN_DATE_AND_TIME_ASSIGNMENT ( #155, #48, ( #80 ) ) ;
#32 = ORGANIZATION ( 'UNSPECIFIED', 'UNSPECIFIED', '' ) ;
#33 = DIRECTION ( 'NONE',  ( 0.0000000000000000000, 1.000000000000000000, 0.0000000000000000000 ) ) ;
#34 = EDGE_LOOP ( 'NONE', ( #14 ) ) ;
#35 = AXIS2_PLACEMENT_3D ( 'NONE', #216, #151, #199 ) ;
#36 = CC_DESIGN_PERSON_AND_ORGANIZATION_ASSIGNMENT ( #156, #205, ( #80 ) ) ;
#37 = CARTESIAN_POINT ( 'NONE',  ( 3.491481338843133355E-14, 0.6449999999999993516, 10.00000000000000000 ) ) ;
#38 = CARTESIAN_POINT ( 'NONE',  ( 1.353141396884409907E-15, 0.6449999999999989075, 0.3875550992727801458 ) ) ;
#39 = AXIS2_PLACEMENT_3D ( 'NONE', #65, #91, #43 ) ;
#40 = ADVANCED_BREP_SHAPE_REPRESENTATION ( '55381', ( #30, #109, #196 ), #178 ) ;
#41 = AXIS2_PLACEMENT_3D ( 'NONE', #115, #136, #59 ) ;
#42 = CARTESIAN_POINT ( 'NONE',  ( 0.0000000000000000000, 0.0000000000000000000, 0.0000000000000000000 ) ) ;
#43 = DIRECTION ( 'NONE',  ( -4.275831445896958607E-31, -1.000000000000000000, -1.224646799147353207E-16 ) ) ;
#44 = DIRECTION ( 'NONE',  ( 3.491481338843133355E-15, -1.224646799147353207E-16, 1.000000000000000000 ) ) ;
#45 = CC_DESIGN_PERSON_AND_ORGANIZATION_ASSIGNMENT ( #122, #192, ( #60 ) ) ;
#46 = PERSON_AND_ORGANIZATION ( #180, #32 ) ;
#47 = AXIS2_PLACEMENT_3D ( 'NONE', #64, #96, #21 ) ;
#48 = DATE_TIME_ROLE ( 'creation_date' ) ;
#49 = CALENDAR_DATE ( 2021, 8, 10 ) ;
#50 = DATE_AND_TIME ( #25, #195 ) ;
#51 = ADVANCED_FACE ( 'NONE', ( #130, #88 ), #84, .T. ) ;
#52 = CONICAL_SURFACE ( 'NONE', #35, 0.7499999999999976685, 0.5235987755982922653 ) ;
#53 = PERSON_AND_ORGANIZATION ( #180, #32 ) ;
#54 = EDGE_LOOP ( 'NONE', ( #166 ) ) ;
#55 = CARTESIAN_POINT ( 'NONE',  ( 3.491481338843133355E-14, -1.224646799147353256E-15, 10.00000000000000000 ) ) ;
#56 = ORIENTED_EDGE ( 'NONE', *, *, #163, .F. ) ;
#57 = EDGE_LOOP ( 'NONE', ( #4 ) ) ;
#58 = DIRECTION ( 'NONE',  ( -3.491481338843133355E-15, 1.224646799147353207E-16, -1.000000000000000000 ) ) ;
#59 = DIRECTION ( 'NONE',  ( 0.0000000000000000000, 1.000000000000000000, 0.0000000000000000000 ) ) ;
#60 = PRODUCT_DEFINITION_FORMATION_WITH_SPECIFIED_SOURCE ( 'ANY', '', #5, .NOT_KNOWN. ) ;
#61 =( NAMED_UNIT ( * ) SI_UNIT ( $, .STERADIAN. ) SOLID_ANGLE_UNIT ( ) );
#62 = APPROVAL_PERSON_ORGANIZATION ( #139, #154, #69 ) ;
#63 = DIRECTION ( 'NONE',  ( 2.985937898274789353E-31, 1.000000000000000000, 8.404668003763614577E-17 ) ) ;
#64 = CARTESIAN_POINT ( 'NONE',  ( 1.047444401652940007E-13, 4.124339402320052999E-33, 30.00000000000000000 ) ) ;
#65 = CARTESIAN_POINT ( 'NONE',  ( 3.491481338843133355E-14, 4.836725299084476827E-33, 10.00000000000000000 ) ) ;
#66 = CC_DESIGN_PERSON_AND_ORGANIZATION_ASSIGNMENT ( #53, #221, ( #60 ) ) ;
#67 = APPLICATION_PROTOCOL_DEFINITION ( 'international standard', 'config_control_design', 1994, #185 ) ;
#68 = CALENDAR_DATE ( 2021, 8, 10 ) ;
#69 = APPROVAL_ROLE ( '' ) ;
#70 = APPROVAL_ROLE ( '' ) ;
#71 = EDGE_LOOP ( 'NONE', ( #210 ) ) ;
#72 = FACE_OUTER_BOUND ( 'NONE', #54, .T. ) ;
#73 = DIRECTION ( 'NONE',  ( -3.491481338843133355E-15, 1.224646799147353207E-16, -1.000000000000000000 ) ) ;
#74 = DIRECTION ( 'NONE',  ( -3.491481338843133355E-15, 1.224646799147353207E-16, -1.000000000000000000 ) ) ;
#75 = CYLINDRICAL_SURFACE ( 'NONE', #22, 0.6449999999999997957 ) ;
#76 = VERTEX_POINT ( 'NONE', #149 ) ;
#77 = PLANE ( 'NONE',  #39 ) ;
#78 = CLOSED_SHELL ( 'NONE', ( #172, #150, #107 ) ) ;
#79 = AXIS2_PLACEMENT_3D ( 'NONE', #164, #181, #16 ) ;
#80 = PRODUCT_DEFINITION ( 'UNKNOWN', '', #60, #99 ) ;
#81 = DIRECTION ( 'NONE',  ( -3.491481338843133355E-15, 1.224646799147353207E-16, -1.000000000000000000 ) ) ;
#82 = SHAPE_DEFINITION_REPRESENTATION ( #93, #40 ) ;
#83 = CIRCLE ( 'NONE', #160, 0.7499999999999976685 ) ;
#84 = CONICAL_SURFACE ( 'NONE', #212, 0.5500000000000000444, 0.7853981633974510546 ) ;
#85 = APPROVAL_STATUS ( 'not_yet_approved' ) ;
#86 = DATE_AND_TIME ( #12, #171 ) ;
#87 = EDGE_LOOP ( 'NONE', ( #3 ) ) ;
#88 = FACE_BOUND ( 'NONE', #213, .T. ) ;
#89 = ORIENTED_EDGE ( 'NONE', *, *, #157, .F. ) ;
#90 = ADVANCED_FACE ( 'NONE', ( #147 ), #214, .F. ) ;
#91 = DIRECTION ( 'NONE',  ( 3.491481338843133355E-15, -1.224646799147353207E-16, 1.000000000000000000 ) ) ;
#92 = CARTESIAN_POINT ( 'NONE',  ( 3.554979281104959053E-14, 0.7499999999999963363, 10.18186533479473077 ) ) ;
#93 = PRODUCT_DEFINITION_SHAPE ( 'NONE', 'NONE',  #80 ) ;
#94 = FACE_OUTER_BOUND ( 'NONE', #143, .T. ) ;
#95 = ADVANCED_FACE ( 'NONE', ( #6, #72 ), #146, .T. ) ;
#96 = DIRECTION ( 'NONE',  ( -3.491481338843133355E-15, 1.224646799147353207E-16, -1.000000000000000000 ) ) ;
#97 = LOCAL_TIME ( 7, 15, 14.00000000000000000, #26 ) ;
#98 = DIRECTION ( 'NONE',  ( 0.0000000000000000000, 0.0000000000000000000, 1.000000000000000000 ) ) ;
#99 = DESIGN_CONTEXT ( 'detailed design', #185, 'design' ) ;
#100 = DATE_TIME_ROLE ( 'classification_date' ) ;
#101 = PERSON_AND_ORGANIZATION_ROLE ( 'classification_officer' ) ;
#102 = PERSON_AND_ORGANIZATION ( #180, #32 ) ;
#103 = SECURITY_CLASSIFICATION_LEVEL ( 'unclassified' ) ;
#104 = APPROVAL ( #85, 'UNSPECIFIED' ) ;
#105 = EDGE_LOOP ( 'NONE', ( #89 ) ) ;
#106 = DIRECTION ( 'NONE',  ( 0.0000000000000000000, 1.000000000000000000, 0.0000000000000000000 ) ) ;
#107 = ADVANCED_FACE ( 'NONE', ( #186 ), #77, .T. ) ;
#108 = EDGE_LOOP ( 'NONE', ( #15 ) ) ;
#109 = MANIFOLD_SOLID_BREP ( 'Corps-Déplacer/Copier1[2]', #78 ) ;
#110 = AXIS2_PLACEMENT_3D ( 'NONE', #10, #81, #118 ) ;
#111 = SECURITY_CLASSIFICATION ( '', '', #103 ) ;
#112 = VERTEX_POINT ( 'NONE', #37 ) ;
#113 = FACE_OUTER_BOUND ( 'NONE', #108, .T. ) ;
#114 = APPLICATION_CONTEXT ( 'configuration controlled 3d designs of mechanical parts and assemblies' ) ;
#115 = CARTESIAN_POINT ( 'NONE',  ( 1.047444401652940007E-13, -3.673940397442059178E-15, 30.00000000000000000 ) ) ;
#116 = VERTEX_POINT ( 'NONE', #133 ) ;
#117 = UNCERTAINTY_MEASURE_WITH_UNIT (LENGTH_MEASURE( 1.000000000000000082E-05 ), #170, 'distance_accuracy_value', 'NONE');
#118 = DIRECTION ( 'NONE',  ( 0.0000000000000000000, 1.000000000000000000, 0.0000000000000000000 ) ) ;
#119 = AXIS2_PLACEMENT_3D ( 'NONE', #203, #74, #7 ) ;
#120 = ADVANCED_FACE ( 'NONE', ( #94 ), #201, .F. ) ;
#121 = PERSON_AND_ORGANIZATION ( #180, #32 ) ;
#122 = PERSON_AND_ORGANIZATION ( #180, #32 ) ;
#123 = CC_DESIGN_APPROVAL ( #187, ( #80 ) ) ;
#124 = CC_DESIGN_PERSON_AND_ORGANIZATION_ASSIGNMENT ( #102, #153, ( #5 ) ) ;
#125 = COORDINATED_UNIVERSAL_TIME_OFFSET ( 1, 0, .AHEAD. ) ;
#126 = ORIENTED_EDGE ( 'NONE', *, *, #200, .F. ) ;
#127 = AXIS2_PLACEMENT_3D ( 'NONE', #198, #58, #132 ) ;
#128 = DIRECTION ( 'NONE',  ( -3.491481338843133355E-15, 1.224646799147353207E-16, -1.000000000000000000 ) ) ;
#129 = ORIENTED_EDGE ( 'NONE', *, *, #27, .F. ) ;
#130 = FACE_OUTER_BOUND ( 'NONE', #57, .T. ) ;
#131 = CIRCLE ( 'NONE', #13, 0.6449999999999989075 ) ;
#132 = DIRECTION ( 'NONE',  ( 4.275831445896959482E-31, 1.000000000000000000, 1.224646799147353207E-16 ) ) ;
#133 = CARTESIAN_POINT ( 'NONE',  ( 3.491481338843133355E-14, 0.6449999999999993516, 10.00000000000000000 ) ) ;
#134 = VERTEX_POINT ( 'NONE', #20 ) ;
#135 = LOCAL_TIME ( 7, 15, 14.00000000000000000, #173 ) ;
#136 = DIRECTION ( 'NONE',  ( -3.491481338843133355E-15, 1.224646799147353207E-16, -1.000000000000000000 ) ) ;
#137 = DIRECTION ( 'NONE',  ( -3.491481338843133355E-15, 1.224646799147353207E-16, -1.000000000000000000 ) ) ;
#138 = CARTESIAN_POINT ( 'NONE',  ( 0.0000000000000000000, 0.0000000000000000000, 0.0000000000000000000 ) ) ;
#139 = PERSON_AND_ORGANIZATION ( #180, #32 ) ;
#140 = LOCAL_TIME ( 7, 15, 14.00000000000000000, #220 ) ;
#141 = APPROVAL_STATUS ( 'not_yet_approved' ) ;
#142 = COORDINATED_UNIVERSAL_TIME_OFFSET ( 1, 0, .AHEAD. ) ;
#143 = EDGE_LOOP ( 'NONE', ( #56 ) ) ;
#144 = PRODUCT_RELATED_PRODUCT_CATEGORY ( 'detail', '', ( #5 ) ) ;
#145 = EDGE_LOOP ( 'NONE', ( #126 ) ) ;
#146 = CYLINDRICAL_SURFACE ( 'NONE', #127, 0.7499999999999986677 ) ;
#147 = FACE_OUTER_BOUND ( 'NONE', #87, .T. ) ;
#148 = FACE_BOUND ( 'NONE', #211, .T. ) ;
#149 = CARTESIAN_POINT ( 'NONE',  ( 1.047444401652940007E-13, 0.5499999999999963807, 30.00000000000000000 ) ) ;
#150 = ADVANCED_FACE ( 'NONE', ( #219, #167 ), #75, .T. ) ;
#151 = DIRECTION ( 'NONE',  ( 3.491481338843133355E-15, -1.224646799147353207E-16, 1.000000000000000000 ) ) ;
#152 = FACE_OUTER_BOUND ( 'NONE', #34, .T. ) ;
#153 = PERSON_AND_ORGANIZATION_ROLE ( 'design_owner' ) ;
#154 = APPROVAL ( #177, 'UNSPECIFIED' ) ;
#155 = DATE_AND_TIME ( #206, #97 ) ;
#156 = PERSON_AND_ORGANIZATION ( #180, #32 ) ;
#157 = EDGE_CURVE ( 'NONE', #112, #112, #189, .T. ) ;
#158 = APPROVAL_DATE_TIME ( #86, #104 ) ;
#159 = PERSON_AND_ORGANIZATION ( #180, #32 ) ;
#160 = AXIS2_PLACEMENT_3D ( 'NONE', #218, #202, #169 ) ;
#161 = CC_DESIGN_APPROVAL ( #104, ( #60 ) ) ;
#162 = ORIENTED_EDGE ( 'NONE', *, *, #163, .T. ) ;
#163 = EDGE_CURVE ( 'NONE', #76, #76, #29, .T. ) ;
#164 = CARTESIAN_POINT ( 'NONE',  ( 3.491481338843133355E-14, 4.836725299084476827E-33, 10.00000000000000000 ) ) ;
#165 = APPROVAL_PERSON_ORGANIZATION ( #46, #187, #70 ) ;
#166 = ORIENTED_EDGE ( 'NONE', *, *, #207, .T. ) ;
#167 = FACE_OUTER_BOUND ( 'NONE', #71, .T. ) ;
#168 = CIRCLE ( 'NONE', #110, 0.7499999999999998890 ) ;
#169 = DIRECTION ( 'NONE',  ( 0.0000000000000000000, 1.000000000000000000, 0.0000000000000000000 ) ) ;
#170 =( LENGTH_UNIT ( ) NAMED_UNIT ( * ) SI_UNIT ( .MILLI., .METRE. ) );
#171 = LOCAL_TIME ( 7, 15, 14.00000000000000000, #142 ) ;
#172 = ADVANCED_FACE ( 'NONE', ( #113 ), #2, .T. ) ;
#173 = COORDINATED_UNIVERSAL_TIME_OFFSET ( 1, 0, .AHEAD. ) ;
#174 = APPROVAL_PERSON_ORGANIZATION ( #159, #104, #223 ) ;
#175 = DATE_AND_TIME ( #49, #135 ) ;
#176 = ADVANCED_FACE ( 'NONE', ( #148, #152 ), #52, .T. ) ;
#177 = APPROVAL_STATUS ( 'not_yet_approved' ) ;
#178 =( GEOMETRIC_REPRESENTATION_CONTEXT ( 3 ) GLOBAL_UNCERTAINTY_ASSIGNED_CONTEXT ( ( #117 ) ) GLOBAL_UNIT_ASSIGNED_CONTEXT ( ( #170, #8, #61 ) ) REPRESENTATION_CONTEXT ( 'NONE', 'WORKASPACE' ) );
#179 = ORIENTED_EDGE ( 'NONE', *, *, #193, .F. ) ;
#180 = PERSON ( 'UNSPECIFIED', 'UNSPECIFIED', 'UNSPECIFIED', ('UNSPECIFIED'), ('UNSPECIFIED'), ('UNSPECIFIED') ) ;
#181 = DIRECTION ( 'NONE',  ( 3.491481338843133355E-15, -1.224646799147353207E-16, 1.000000000000000000 ) ) ;
#182 = CC_DESIGN_SECURITY_CLASSIFICATION ( #111, ( #60 ) ) ;
#183 = CLOSED_SHELL ( 'NONE', ( #90, #176, #95, #51, #120 ) ) ;
#184 = EDGE_LOOP ( 'NONE', ( #179 ) ) ;
#185 = APPLICATION_CONTEXT ( 'configuration controlled 3d designs of mechanical parts and assemblies' ) ;
#186 = FACE_OUTER_BOUND ( 'NONE', #105, .T. ) ;
#187 = APPROVAL ( #141, 'UNSPECIFIED' ) ;
#188 = DIRECTION ( 'NONE',  ( -2.985937898274789353E-31, -1.000000000000000000, -8.404668003763614577E-17 ) ) ;
#189 = CIRCLE ( 'NONE', #119, 0.6450000000000004619 ) ;
#190 = CARTESIAN_POINT ( 'NONE',  ( 1.353141396884409709E-15, -4.746181118176447994E-17, 0.3875550992727800903 ) ) ;
#191 = DIRECTION ( 'NONE',  ( 4.275831445896957731E-31, 1.000000000000000000, 1.224646799147353207E-16 ) ) ;
#192 = PERSON_AND_ORGANIZATION_ROLE ( 'design_supplier' ) ;
#193 = EDGE_CURVE ( 'NONE', #18, #18, #83, .T. ) ;
#194 = MECHANICAL_CONTEXT ( 'NONE', #114, 'mechanical' ) ;
#195 = LOCAL_TIME ( 7, 15, 14.00000000000000000, #125 ) ;
#196 = AXIS2_PLACEMENT_3D ( 'NONE', #138, #98, #204 ) ;
#197 = CARTESIAN_POINT ( 'NONE',  ( 1.047444401652940007E-13, -3.673940397442059178E-15, 30.00000000000000000 ) ) ;
#198 = CARTESIAN_POINT ( 'NONE',  ( 0.0000000000000000000, 0.0000000000000000000, 0.0000000000000000000 ) ) ;
#199 = DIRECTION ( 'NONE',  ( 0.0000000000000000000, -1.000000000000000000, 0.0000000000000000000 ) ) ;
#200 = EDGE_CURVE ( 'NONE', #217, #217, #131, .T. ) ;
#201 = PLANE ( 'NONE',  #47 ) ;
#202 = DIRECTION ( 'NONE',  ( -3.491481338843133355E-15, 1.224646799147353207E-16, -1.000000000000000000 ) ) ;
#203 = CARTESIAN_POINT ( 'NONE',  ( 3.491481338843133355E-14, -1.224646799147353256E-15, 10.00000000000000000 ) ) ;
#204 = DIRECTION ( 'NONE',  ( 1.000000000000000000, 0.0000000000000000000, 0.0000000000000000000 ) ) ;
#205 = PERSON_AND_ORGANIZATION_ROLE ( 'creator' ) ;
#206 = CALENDAR_DATE ( 2021, 8, 10 ) ;
#207 = EDGE_CURVE ( 'NONE', #134, #134, #168, .T. ) ;
#208 = CIRCLE ( 'NONE', #23, 0.6450000000000004619 ) ;
#209 = CC_DESIGN_DATE_AND_TIME_ASSIGNMENT ( #24, #100, ( #111 ) ) ;
#210 = ORIENTED_EDGE ( 'NONE', *, *, #157, .T. ) ;
#211 = EDGE_LOOP ( 'NONE', ( #129 ) ) ;
#212 = AXIS2_PLACEMENT_3D ( 'NONE', #197, #73, #106 ) ;
#213 = EDGE_LOOP ( 'NONE', ( #162 ) ) ;
#214 = PLANE ( 'NONE',  #79 ) ;
#215 = CC_DESIGN_APPROVAL ( #154, ( #111 ) ) ;
#216 = CARTESIAN_POINT ( 'NONE',  ( 3.554979281104959053E-14, -1.246918879160576030E-15, 10.18186533479473077 ) ) ;
#217 = VERTEX_POINT ( 'NONE', #38 ) ;
#218 = CARTESIAN_POINT ( 'NONE',  ( 3.554979281104959053E-14, -1.246918879160576030E-15, 10.18186533479473077 ) ) ;
#219 = FACE_OUTER_BOUND ( 'NONE', #145, .T. ) ;
#220 = COORDINATED_UNIVERSAL_TIME_OFFSET ( 1, 0, .AHEAD. ) ;
#221 = PERSON_AND_ORGANIZATION_ROLE ( 'creator' ) ;
#222 = CC_DESIGN_PERSON_AND_ORGANIZATION_ASSIGNMENT ( #121, #101, ( #111 ) ) ;
#223 = APPROVAL_ROLE ( '' ) ;
ENDSEC;
END-ISO-10303-21;
