ISO-10303-21;
HEADER;
FILE_DESCRIPTION (( 'STEP AP203' ),
    '1' );
FILE_NAME ('55380.step',
    '2021-10-08T05:15:14',
    ( '' ),
    ( '' ),
    'SwSTEP 2.0',
    'SolidWorks 2019',
    '' );
FILE_SCHEMA (( 'CONFIG_CONTROL_DESIGN' ));
ENDSEC;

DATA;
#1 = PERSON_AND_ORGANIZATION ( #203, #56 ) ;
#2 = ORIENTED_EDGE ( 'NONE', *, *, #68, .T. ) ;
#3 = FACE_OUTER_BOUND ( 'NONE', #80, .T. ) ;
#4 = ORIENTED_EDGE ( 'NONE', *, *, #172, .T. ) ;
#5 = CARTESIAN_POINT ( 'NONE',  ( 1.342651928691507229E-15, 0.6399999999999989031, 0.3845507961776422068 ) ) ;
#6 = APPROVAL_DATE_TIME ( #151, #199 ) ;
#7 = AXIS2_PLACEMENT_3D ( 'NONE', #141, #124, #10 ) ;
#8 = APPROVAL ( #139, 'UNSPECIFIED' ) ;
#9 = VERTEX_POINT ( 'NONE', #182 ) ;
#10 = DIRECTION ( 'NONE',  ( 0.0000000000000000000, 1.000000000000000000, 0.0000000000000000000 ) ) ;
#11 = DATE_AND_TIME ( #211, #164 ) ;
#12 = CARTESIAN_POINT ( 'NONE',  ( 1.342651928691507032E-15, -4.709389016485156720E-17, 0.3845507961776421513 ) ) ;
#13 = APPROVAL_PERSON_ORGANIZATION ( #127, #36, #123 ) ;
#14 = APPROVAL_DATE_TIME ( #11, #36 ) ;
#15 = EDGE_LOOP ( 'NONE', ( #188 ) ) ;
#16 = CARTESIAN_POINT ( 'NONE',  ( 3.491481338843133355E-14, 0.6399999999999999023, 10.00000000000000000 ) ) ;
#17 = APPROVAL_PERSON_ORGANIZATION ( #166, #8, #112 ) ;
#18 = DIRECTION ( 'NONE',  ( -3.491481338843133355E-15, 1.224646799147353207E-16, -1.000000000000000000 ) ) ;
#19 = ADVANCED_FACE ( 'NONE', ( #105, #137 ), #57, .T. ) ;
#20 = AXIS2_PLACEMENT_3D ( 'NONE', #128, #140, #113 ) ;
#21 = PRODUCT_RELATED_PRODUCT_CATEGORY ( 'detail', '', ( #86 ) ) ;
#22 = AXIS2_PLACEMENT_3D ( 'NONE', #174, #91, #111 ) ;
#23 = PLANE ( 'NONE',  #72 ) ;
#24 = APPLICATION_PROTOCOL_DEFINITION ( 'international standard', 'config_control_design', 1994, #26 ) ;
#25 = DIRECTION ( 'NONE',  ( 0.0000000000000000000, 1.000000000000000000, 0.0000000000000000000 ) ) ;
#26 = APPLICATION_CONTEXT ( 'configuration controlled 3d designs of mechanical parts and assemblies' ) ;
#27 = PERSON_AND_ORGANIZATION ( #203, #56 ) ;
#28 = MANIFOLD_SOLID_BREP ( 'Corps-Déplacer/Copier1[1]', #194 ) ;
#29 = APPLICATION_PROTOCOL_DEFINITION ( 'international standard', 'config_control_design', 1994, #200 ) ;
#30 = PERSON_AND_ORGANIZATION_ROLE ( 'design_supplier' ) ;
#31 = CC_DESIGN_APPROVAL ( #8, ( #121 ) ) ;
#32 = APPROVAL_STATUS ( 'not_yet_approved' ) ;
#33 = DIRECTION ( 'NONE',  ( 3.009265538105061275E-31, 1.000000000000000000, 8.470329472543018182E-17 ) ) ;
#34 = EDGE_LOOP ( 'NONE', ( #2 ) ) ;
#35 = SHAPE_DEFINITION_REPRESENTATION ( #67, #149 ) ;
#36 = APPROVAL ( #221, 'UNSPECIFIED' ) ;
#37 = DIRECTION ( 'NONE',  ( 4.275831445896958607E-31, 1.000000000000000000, 1.224646799147353207E-16 ) ) ;
#38 = LOCAL_TIME ( 7, 15, 14.00000000000000000, #215 ) ;
#39 = ADVANCED_FACE ( 'NONE', ( #222, #171 ), #195, .T. ) ;
#40 = CONICAL_SURFACE ( 'NONE', #159, 0.7499999999999976685, 0.5235987755982881575 ) ;
#41 = ADVANCED_FACE ( 'NONE', ( #103 ), #133, .F. ) ;
#42 = DIRECTION ( 'NONE',  ( -3.491481338843133355E-15, 1.224646799147353207E-16, -1.000000000000000000 ) ) ;
#43 = DIRECTION ( 'NONE',  ( 4.275831445896959482E-31, 1.000000000000000000, 1.224646799147353207E-16 ) ) ;
#44 = PERSON_AND_ORGANIZATION_ROLE ( 'creator' ) ;
#45 = CIRCLE ( 'NONE', #104, 0.5500000000000000444 ) ;
#46 = DIRECTION ( 'NONE',  ( 3.491481338843133355E-15, -1.224646799147353207E-16, 1.000000000000000000 ) ) ;
#47 = CALENDAR_DATE ( 2021, 8, 10 ) ;
#48 = APPROVAL_DATE_TIME ( #163, #8 ) ;
#49 = DATE_TIME_ROLE ( 'classification_date' ) ;
#50 = DESIGN_CONTEXT ( 'detailed design', #26, 'design' ) ;
#51 = CIRCLE ( 'NONE', #205, 0.7499999999999998890 ) ;
#52 = VERTEX_POINT ( 'NONE', #5 ) ;
#53 = CC_DESIGN_PERSON_AND_ORGANIZATION_ASSIGNMENT ( #27, #44, ( #202 ) ) ;
#54 = AXIS2_PLACEMENT_3D ( 'NONE', #12, #18, #33 ) ;
#55 = DIRECTION ( 'NONE',  ( -3.491481338843133355E-15, 1.224646799147353207E-16, -1.000000000000000000 ) ) ;
#56 = ORGANIZATION ( 'UNSPECIFIED', 'UNSPECIFIED', '' ) ;
#57 = CONICAL_SURFACE ( 'NONE', #75, 0.5500000000000000444, 0.7853981633974510546 ) ;
#58 = CARTESIAN_POINT ( 'NONE',  ( 3.491481338843133355E-14, 4.799231304517935587E-33, 10.00000000000000000 ) ) ;
#59 = PERSON_AND_ORGANIZATION ( #203, #56 ) ;
#60 = EDGE_LOOP ( 'NONE', ( #4 ) ) ;
#61 = DIRECTION ( 'NONE',  ( 0.0000000000000000000, 0.0000000000000000000, 1.000000000000000000 ) ) ;
#62 = ORIENTED_EDGE ( 'NONE', *, *, #172, .F. ) ;
#63 = SECURITY_CLASSIFICATION ( '', '', #108 ) ;
#64 = VERTEX_POINT ( 'NONE', #16 ) ;
#65 = DIRECTION ( 'NONE',  ( -3.491481338843133355E-15, 1.224646799147353207E-16, -1.000000000000000000 ) ) ;
#66 = LOCAL_TIME ( 7, 15, 14.00000000000000000, #88 ) ;
#67 = PRODUCT_DEFINITION_SHAPE ( 'NONE', 'NONE',  #202 ) ;
#68 = EDGE_CURVE ( 'NONE', #52, #52, #210, .T. ) ;
#69 = DIRECTION ( 'NONE',  ( 3.491481338843133355E-15, -1.224646799147353207E-16, 1.000000000000000000 ) ) ;
#70 = DIRECTION ( 'NONE',  ( -4.275831445896958607E-31, -1.000000000000000000, -1.224646799147353207E-16 ) ) ;
#71 = MECHANICAL_CONTEXT ( 'NONE', #200, 'mechanical' ) ;
#72 = AXIS2_PLACEMENT_3D ( 'NONE', #206, #69, #70 ) ;
#73 = COORDINATED_UNIVERSAL_TIME_OFFSET ( 1, 0, .AHEAD. ) ;
#74 = APPROVAL_PERSON_ORGANIZATION ( #185, #199, #177 ) ;
#75 = AXIS2_PLACEMENT_3D ( 'NONE', #207, #42, #157 ) ;
#76 = CARTESIAN_POINT ( 'NONE',  ( 0.0000000000000000000, 0.0000000000000000000, 0.0000000000000000000 ) ) ;
#77 = DATE_AND_TIME ( #165, #66 ) ;
#78 = CARTESIAN_POINT ( 'NONE',  ( 3.558002992641237188E-14, 0.7499999999999963363, 10.19052558883257475 ) ) ;
#79 = VERTEX_POINT ( 'NONE', #78 ) ;
#80 = EDGE_LOOP ( 'NONE', ( #190 ) ) ;
#81 = AXIS2_PLACEMENT_3D ( 'NONE', #58, #95, #198 ) ;
#82 = CC_DESIGN_DATE_AND_TIME_ASSIGNMENT ( #92, #109, ( #202 ) ) ;
#83 = EDGE_LOOP ( 'NONE', ( #132 ) ) ;
#84 = CC_DESIGN_PERSON_AND_ORGANIZATION_ASSIGNMENT ( #1, #116, ( #86 ) ) ;
#85 = FACE_OUTER_BOUND ( 'NONE', #197, .T. ) ;
#86 = PRODUCT ( '55380', '55380', '', ( #71 ) ) ;
#87 = ADVANCED_FACE ( 'NONE', ( #3, #184 ), #196, .T. ) ;
#88 = COORDINATED_UNIVERSAL_TIME_OFFSET ( 1, 0, .AHEAD. ) ;
#89 = CIRCLE ( 'NONE', #134, 0.6400000000000011235 ) ;
#90 =( LENGTH_UNIT ( ) NAMED_UNIT ( * ) SI_UNIT ( .MILLI., .METRE. ) );
#91 = DIRECTION ( 'NONE',  ( -3.491481338843133355E-15, 1.224646799147353207E-16, -1.000000000000000000 ) ) ;
#92 = DATE_AND_TIME ( #47, #38 ) ;
#93 = ORIENTED_EDGE ( 'NONE', *, *, #150, .T. ) ;
#94 = DIRECTION ( 'NONE',  ( 0.0000000000000000000, -1.000000000000000000, 0.0000000000000000000 ) ) ;
#95 = DIRECTION ( 'NONE',  ( 3.491481338843133355E-15, -1.224646799147353207E-16, 1.000000000000000000 ) ) ;
#96 = CARTESIAN_POINT ( 'NONE',  ( 0.0000000000000000000, 0.0000000000000000000, 0.0000000000000000000 ) ) ;
#97 =( GEOMETRIC_REPRESENTATION_CONTEXT ( 3 ) GLOBAL_UNCERTAINTY_ASSIGNED_CONTEXT ( ( #169 ) ) GLOBAL_UNIT_ASSIGNED_CONTEXT ( ( #90, #125, #181 ) ) REPRESENTATION_CONTEXT ( 'NONE', 'WORKASPACE' ) );
#98 = EDGE_LOOP ( 'NONE', ( #168 ) ) ;
#99 = ORIENTED_EDGE ( 'NONE', *, *, #161, .T. ) ;
#100 = ADVANCED_FACE ( 'NONE', ( #176, #213 ), #40, .T. ) ;
#101 = MANIFOLD_SOLID_BREP ( 'Corps-Déplacer/Copier1[2]', #145 ) ;
#102 = CARTESIAN_POINT ( 'NONE',  ( 0.0000000000000000000, 0.0000000000000000000, 0.0000000000000000000 ) ) ;
#103 = FACE_OUTER_BOUND ( 'NONE', #98, .T. ) ;
#104 = AXIS2_PLACEMENT_3D ( 'NONE', #106, #156, #146 ) ;
#105 = FACE_OUTER_BOUND ( 'NONE', #118, .T. ) ;
#106 = CARTESIAN_POINT ( 'NONE',  ( 1.047444401652940007E-13, -3.673940397442059178E-15, 30.00000000000000000 ) ) ;
#107 = AXIS2_PLACEMENT_3D ( 'NONE', #102, #65, #37 ) ;
#108 = SECURITY_CLASSIFICATION_LEVEL ( 'unclassified' ) ;
#109 = DATE_TIME_ROLE ( 'creation_date' ) ;
#110 = ADVANCED_FACE ( 'NONE', ( #158 ), #170, .T. ) ;
#111 = DIRECTION ( 'NONE',  ( 4.275831445896958607E-31, 1.000000000000000000, 1.224646799147353207E-16 ) ) ;
#112 = APPROVAL_ROLE ( '' ) ;
#113 = DIRECTION ( 'NONE',  ( -3.009265538105061275E-31, -1.000000000000000000, -8.470329472543018182E-17 ) ) ;
#114 = CARTESIAN_POINT ( 'NONE',  ( 3.558002992641237188E-14, -1.247979454399301074E-15, 10.19052558883257475 ) ) ;
#115 = EDGE_CURVE ( 'NONE', #79, #79, #216, .T. ) ;
#116 = PERSON_AND_ORGANIZATION_ROLE ( 'design_owner' ) ;
#117 = ORIENTED_EDGE ( 'NONE', *, *, #150, .F. ) ;
#118 = EDGE_LOOP ( 'NONE', ( #62 ) ) ;
#119 = COORDINATED_UNIVERSAL_TIME_OFFSET ( 1, 0, .AHEAD. ) ;
#120 = EDGE_LOOP ( 'NONE', ( #187 ) ) ;
#121 = PRODUCT_DEFINITION_FORMATION_WITH_SPECIFIED_SOURCE ( 'ANY', '', #86, .NOT_KNOWN. ) ;
#122 = CC_DESIGN_PERSON_AND_ORGANIZATION_ASSIGNMENT ( #129, #160, ( #63 ) ) ;
#123 = APPROVAL_ROLE ( '' ) ;
#124 = DIRECTION ( 'NONE',  ( -3.491481338843133355E-15, 1.224646799147353207E-16, -1.000000000000000000 ) ) ;
#125 =( NAMED_UNIT ( * ) PLANE_ANGLE_UNIT ( ) SI_UNIT ( $, .RADIAN. ) );
#126 = EDGE_CURVE ( 'NONE', #148, #148, #45, .T. ) ;
#127 = PERSON_AND_ORGANIZATION ( #203, #56 ) ;
#128 = CARTESIAN_POINT ( 'NONE',  ( 1.342651928691507032E-15, -4.709389016485156720E-17, 0.3845507961776421513 ) ) ;
#129 = PERSON_AND_ORGANIZATION ( #203, #56 ) ;
#130 = CARTESIAN_POINT ( 'NONE',  ( 3.491481338843133355E-14, 0.6399999999999999023, 10.00000000000000000 ) ) ;
#131 = AXIS2_PLACEMENT_3D ( 'NONE', #96, #61, #138 ) ;
#132 = ORIENTED_EDGE ( 'NONE', *, *, #115, .T. ) ;
#133 = PLANE ( 'NONE',  #22 ) ;
#134 = AXIS2_PLACEMENT_3D ( 'NONE', #179, #55, #25 ) ;
#135 = VERTEX_POINT ( 'NONE', #130 ) ;
#136 = DIRECTION ( 'NONE',  ( -3.491481338843133355E-15, 1.224646799147353207E-16, -1.000000000000000000 ) ) ;
#137 = FACE_BOUND ( 'NONE', #120, .T. ) ;
#138 = DIRECTION ( 'NONE',  ( 1.000000000000000000, 0.0000000000000000000, 0.0000000000000000000 ) ) ;
#139 = APPROVAL_STATUS ( 'not_yet_approved' ) ;
#140 = DIRECTION ( 'NONE',  ( 3.491481338843133355E-15, -1.224646799147353207E-16, 1.000000000000000000 ) ) ;
#141 = CARTESIAN_POINT ( 'NONE',  ( 3.491481338843133355E-14, -1.224646799147353256E-15, 10.00000000000000000 ) ) ;
#142 = CALENDAR_DATE ( 2021, 8, 10 ) ;
#143 = PLANE ( 'NONE',  #81 ) ;
#144 = PERSON_AND_ORGANIZATION ( #203, #56 ) ;
#145 = CLOSED_SHELL ( 'NONE', ( #110, #39, #180 ) ) ;
#146 = DIRECTION ( 'NONE',  ( 0.0000000000000000000, 1.000000000000000000, 0.0000000000000000000 ) ) ;
#147 = DIRECTION ( 'NONE',  ( -3.491481338843133355E-15, 1.224646799147353207E-16, -1.000000000000000000 ) ) ;
#148 = VERTEX_POINT ( 'NONE', #189 ) ;
#149 = ADVANCED_BREP_SHAPE_REPRESENTATION ( '55380', ( #28, #101, #131 ), #97 ) ;
#150 = EDGE_CURVE ( 'NONE', #64, #64, #218, .T. ) ;
#151 = DATE_AND_TIME ( #173, #193 ) ;
#152 = AXIS2_PLACEMENT_3D ( 'NONE', #76, #147, #43 ) ;
#153 = CARTESIAN_POINT ( 'NONE',  ( 3.558002992641237188E-14, -1.247979454399301074E-15, 10.19052558883257475 ) ) ;
#154 = AXIS2_PLACEMENT_3D ( 'NONE', #153, #136, #220 ) ;
#155 = CC_DESIGN_PERSON_AND_ORGANIZATION_ASSIGNMENT ( #144, #223, ( #121 ) ) ;
#156 = DIRECTION ( 'NONE',  ( -3.491481338843133355E-15, 1.224646799147353207E-16, -1.000000000000000000 ) ) ;
#157 = DIRECTION ( 'NONE',  ( 0.0000000000000000000, 1.000000000000000000, 0.0000000000000000000 ) ) ;
#158 = FACE_OUTER_BOUND ( 'NONE', #34, .T. ) ;
#159 = AXIS2_PLACEMENT_3D ( 'NONE', #114, #46, #94 ) ;
#160 = PERSON_AND_ORGANIZATION_ROLE ( 'classification_officer' ) ;
#161 = EDGE_CURVE ( 'NONE', #135, #135, #89, .T. ) ;
#162 = DIRECTION ( 'NONE',  ( -3.491481338843133355E-15, 1.224646799147353207E-16, -1.000000000000000000 ) ) ;
#163 = DATE_AND_TIME ( #142, #175 ) ;
#164 = LOCAL_TIME ( 7, 15, 14.00000000000000000, #208 ) ;
#165 = CALENDAR_DATE ( 2021, 8, 10 ) ;
#166 = PERSON_AND_ORGANIZATION ( #203, #56 ) ;
#167 = CC_DESIGN_DATE_AND_TIME_ASSIGNMENT ( #77, #49, ( #63 ) ) ;
#168 = ORIENTED_EDGE ( 'NONE', *, *, #126, .F. ) ;
#169 = UNCERTAINTY_MEASURE_WITH_UNIT (LENGTH_MEASURE( 1.000000000000000082E-05 ), #90, 'distance_accuracy_value', 'NONE');
#170 = CONICAL_SURFACE ( 'NONE', #20, 0.6399999999999989031, 1.029744258676649649 ) ;
#171 = FACE_OUTER_BOUND ( 'NONE', #192, .T. ) ;
#172 = EDGE_CURVE ( 'NONE', #9, #9, #51, .T. ) ;
#173 = CALENDAR_DATE ( 2021, 8, 10 ) ;
#174 = CARTESIAN_POINT ( 'NONE',  ( 1.047444401652940007E-13, 4.124339402320052999E-33, 30.00000000000000000 ) ) ;
#175 = LOCAL_TIME ( 7, 15, 14.00000000000000000, #73 ) ;
#176 = FACE_BOUND ( 'NONE', #15, .T. ) ;
#177 = APPROVAL_ROLE ( '' ) ;
#178 = CC_DESIGN_APPROVAL ( #36, ( #202 ) ) ;
#179 = CARTESIAN_POINT ( 'NONE',  ( 3.491481338843133355E-14, -1.224646799147353256E-15, 10.00000000000000000 ) ) ;
#180 = ADVANCED_FACE ( 'NONE', ( #204 ), #23, .T. ) ;
#181 =( NAMED_UNIT ( * ) SI_UNIT ( $, .STERADIAN. ) SOLID_ANGLE_UNIT ( ) );
#182 = CARTESIAN_POINT ( 'NONE',  ( 1.040461438975253740E-13, 0.7499999999999962252, 29.80000000000000071 ) ) ;
#183 = EDGE_LOOP ( 'NONE', ( #117 ) ) ;
#184 = FACE_OUTER_BOUND ( 'NONE', #60, .T. ) ;
#185 = PERSON_AND_ORGANIZATION ( #203, #56 ) ;
#186 = ORIENTED_EDGE ( 'NONE', *, *, #68, .F. ) ;
#187 = ORIENTED_EDGE ( 'NONE', *, *, #126, .T. ) ;
#188 = ORIENTED_EDGE ( 'NONE', *, *, #161, .F. ) ;
#189 = CARTESIAN_POINT ( 'NONE',  ( 1.047444401652940007E-13, 0.5499999999999963807, 30.00000000000000000 ) ) ;
#190 = ORIENTED_EDGE ( 'NONE', *, *, #115, .F. ) ;
#191 = CC_DESIGN_PERSON_AND_ORGANIZATION_ASSIGNMENT ( #59, #30, ( #121 ) ) ;
#192 = EDGE_LOOP ( 'NONE', ( #93 ) ) ;
#193 = LOCAL_TIME ( 7, 15, 14.00000000000000000, #119 ) ;
#194 = CLOSED_SHELL ( 'NONE', ( #209, #100, #87, #19, #41 ) ) ;
#195 = CYLINDRICAL_SURFACE ( 'NONE', #107, 0.6399999999999999023 ) ;
#196 = CYLINDRICAL_SURFACE ( 'NONE', #152, 0.7499999999999986677 ) ;
#197 = EDGE_LOOP ( 'NONE', ( #99 ) ) ;
#198 = DIRECTION ( 'NONE',  ( -4.275831445896958607E-31, -1.000000000000000000, -1.224646799147353207E-16 ) ) ;
#199 = APPROVAL ( #32, 'UNSPECIFIED' ) ;
#200 = APPLICATION_CONTEXT ( 'configuration controlled 3d designs of mechanical parts and assemblies' ) ;
#201 = CC_DESIGN_APPROVAL ( #199, ( #63 ) ) ;
#202 = PRODUCT_DEFINITION ( 'UNKNOWN', '', #121, #50 ) ;
#203 = PERSON ( 'UNSPECIFIED', 'UNSPECIFIED', 'UNSPECIFIED', ('UNSPECIFIED'), ('UNSPECIFIED'), ('UNSPECIFIED') ) ;
#204 = FACE_OUTER_BOUND ( 'NONE', #183, .T. ) ;
#205 = AXIS2_PLACEMENT_3D ( 'NONE', #212, #162, #219 ) ;
#206 = CARTESIAN_POINT ( 'NONE',  ( 3.491481338843133355E-14, 4.799231304517935587E-33, 10.00000000000000000 ) ) ;
#207 = CARTESIAN_POINT ( 'NONE',  ( 1.047444401652940007E-13, -3.673940397442059178E-15, 30.00000000000000000 ) ) ;
#208 = COORDINATED_UNIVERSAL_TIME_OFFSET ( 1, 0, .AHEAD. ) ;
#209 = ADVANCED_FACE ( 'NONE', ( #85 ), #143, .F. ) ;
#210 = CIRCLE ( 'NONE', #54, 0.6399999999999989031 ) ;
#211 = CALENDAR_DATE ( 2021, 8, 10 ) ;
#212 = CARTESIAN_POINT ( 'NONE',  ( 1.040461438975253740E-13, -3.649447461459112464E-15, 29.80000000000000071 ) ) ;
#213 = FACE_OUTER_BOUND ( 'NONE', #83, .T. ) ;
#214 = EDGE_LOOP ( 'NONE', ( #186 ) ) ;
#215 = COORDINATED_UNIVERSAL_TIME_OFFSET ( 1, 0, .AHEAD. ) ;
#216 = CIRCLE ( 'NONE', #154, 0.7499999999999976685 ) ;
#217 = CC_DESIGN_SECURITY_CLASSIFICATION ( #63, ( #121 ) ) ;
#218 = CIRCLE ( 'NONE', #7, 0.6400000000000011235 ) ;
#219 = DIRECTION ( 'NONE',  ( 0.0000000000000000000, 1.000000000000000000, 0.0000000000000000000 ) ) ;
#220 = DIRECTION ( 'NONE',  ( 0.0000000000000000000, 1.000000000000000000, 0.0000000000000000000 ) ) ;
#221 = APPROVAL_STATUS ( 'not_yet_approved' ) ;
#222 = FACE_OUTER_BOUND ( 'NONE', #214, .T. ) ;
#223 = PERSON_AND_ORGANIZATION_ROLE ( 'creator' ) ;
ENDSEC;
END-ISO-10303-21;
