ISO-10303-21;
HEADER;
FILE_DESCRIPTION (( 'STEP AP203' ),
    '1' );
FILE_NAME ('55379.step',
    '2021-10-08T05:15:13',
    ( '' ),
    ( '' ),
    'SwSTEP 2.0',
    'SolidWorks 2019',
    '' );
FILE_SCHEMA (( 'CONFIG_CONTROL_DESIGN' ));
ENDSEC;

DATA;
#1 = EDGE_CURVE ( 'NONE', #44, #44, #84, .T. ) ;
#2 = SECURITY_CLASSIFICATION ( '', '', #144 ) ;
#3 = CC_DESIGN_APPROVAL ( #70, ( #40 ) ) ;
#4 = CONICAL_SURFACE ( 'NONE', #128, 0.6349999999999988987, 1.029744258676649649 ) ;
#5 = CARTESIAN_POINT ( 'NONE',  ( 1.040461438975253740E-13, -3.649447461459112464E-15, 29.80000000000000071 ) ) ;
#6 = PERSON_AND_ORGANIZATION ( #172, #46 ) ;
#7 = CC_DESIGN_APPROVAL ( #62, ( #2 ) ) ;
#8 = FACE_OUTER_BOUND ( 'NONE', #48, .T. ) ;
#9 = ADVANCED_FACE ( 'NONE', ( #131 ), #36, .F. ) ;
#10 = ORIENTED_EDGE ( 'NONE', *, *, #17, .T. ) ;
#11 = CONICAL_SURFACE ( 'NONE', #161, 0.5500000000000000444, 0.7853981633974510546 ) ;
#12 = EDGE_LOOP ( 'NONE', ( #63 ) ) ;
#13 = DIRECTION ( 'NONE',  ( -3.491481338843133355E-15, 1.224646799147353207E-16, -1.000000000000000000 ) ) ;
#14 = AXIS2_PLACEMENT_3D ( 'NONE', #67, #136, #134 ) ;
#15 = CALENDAR_DATE ( 2021, 8, 10 ) ;
#16 = CYLINDRICAL_SURFACE ( 'NONE', #168, 0.6349999999999998979 ) ;
#17 = EDGE_CURVE ( 'NONE', #125, #125, #18, .T. ) ;
#18 = CIRCLE ( 'NONE', #110, 0.6349999999999988987 ) ;
#19 = FACE_OUTER_BOUND ( 'NONE', #223, .T. ) ;
#20 = PRODUCT_RELATED_PRODUCT_CATEGORY ( 'detail', '', ( #126 ) ) ;
#21 = APPLICATION_CONTEXT ( 'configuration controlled 3d designs of mechanical parts and assemblies' ) ;
#22 =( NAMED_UNIT ( * ) PLANE_ANGLE_UNIT ( ) SI_UNIT ( $, .RADIAN. ) );
#23 = CARTESIAN_POINT ( 'NONE',  ( 3.561026704177514062E-14, -1.249040029638025724E-15, 10.19918584287041874 ) ) ;
#24 = AXIS2_PLACEMENT_3D ( 'NONE', #121, #188, #105 ) ;
#25 = CC_DESIGN_SECURITY_CLASSIFICATION ( #2, ( #153 ) ) ;
#26 = ADVANCED_BREP_SHAPE_REPRESENTATION ( '55379', ( #103, #37, #163 ), #145 ) ;
#27 = DIRECTION ( 'NONE',  ( 3.491481338843133355E-15, -1.224646799147353207E-16, 1.000000000000000000 ) ) ;
#28 = VERTEX_POINT ( 'NONE', #60 ) ;
#29 =( NAMED_UNIT ( * ) SI_UNIT ( $, .STERADIAN. ) SOLID_ANGLE_UNIT ( ) );
#30 = DIRECTION ( 'NONE',  ( 0.0000000000000000000, 1.000000000000000000, 0.0000000000000000000 ) ) ;
#31 = DATE_AND_TIME ( #71, #198 ) ;
#32 = LOCAL_TIME ( 7, 15, 13.00000000000000000, #54 ) ;
#33 = DATE_TIME_ROLE ( 'classification_date' ) ;
#34 = ORIENTED_EDGE ( 'NONE', *, *, #151, .F. ) ;
#35 = DIRECTION ( 'NONE',  ( 3.032960542342109047E-31, 1.000000000000000000, 8.537024980200837349E-17 ) ) ;
#36 = PLANE ( 'NONE',  #152 ) ;
#37 = MANIFOLD_SOLID_BREP ( 'Corps-Déplacer/Copier1[2]', #77 ) ;
#38 = CC_DESIGN_DATE_AND_TIME_ASSIGNMENT ( #91, #158, ( #40 ) ) ;
#39 = CARTESIAN_POINT ( 'NONE',  ( 0.0000000000000000000, 0.0000000000000000000, 0.0000000000000000000 ) ) ;
#40 = PRODUCT_DEFINITION ( 'UNKNOWN', '', #153, #212 ) ;
#41 = AXIS2_PLACEMENT_3D ( 'NONE', #5, #42, #140 ) ;
#42 = DIRECTION ( 'NONE',  ( -3.491481338843133355E-15, 1.224646799147353207E-16, -1.000000000000000000 ) ) ;
#43 = COORDINATED_UNIVERSAL_TIME_OFFSET ( 1, 0, .AHEAD. ) ;
#44 = VERTEX_POINT ( 'NONE', #214 ) ;
#45 = EDGE_LOOP ( 'NONE', ( #167 ) ) ;
#46 = ORGANIZATION ( 'UNSPECIFIED', 'UNSPECIFIED', '' ) ;
#47 = CALENDAR_DATE ( 2021, 8, 10 ) ;
#48 = EDGE_LOOP ( 'NONE', ( #127 ) ) ;
#49 = CC_DESIGN_DATE_AND_TIME_ASSIGNMENT ( #50, #33, ( #2 ) ) ;
#50 = DATE_AND_TIME ( #47, #220 ) ;
#51 = EDGE_LOOP ( 'NONE', ( #34 ) ) ;
#52 = DIRECTION ( 'NONE',  ( 0.0000000000000000000, 1.000000000000000000, 0.0000000000000000000 ) ) ;
#53 = SHAPE_DEFINITION_REPRESENTATION ( #203, #26 ) ;
#54 = COORDINATED_UNIVERSAL_TIME_OFFSET ( 1, 0, .AHEAD. ) ;
#55 = DIRECTION ( 'NONE',  ( -3.491481338843133355E-15, 1.224646799147353207E-16, -1.000000000000000000 ) ) ;
#56 = CIRCLE ( 'NONE', #208, 0.5500000000000000444 ) ;
#57 = DIRECTION ( 'NONE',  ( 0.0000000000000000000, 1.000000000000000000, 0.0000000000000000000 ) ) ;
#58 = EDGE_CURVE ( 'NONE', #28, #28, #56, .T. ) ;
#59 = APPLICATION_PROTOCOL_DEFINITION ( 'international standard', 'config_control_design', 1994, #209 ) ;
#60 = CARTESIAN_POINT ( 'NONE',  ( 1.047444401652940007E-13, 0.5499999999999963807, 30.00000000000000000 ) ) ;
#61 =( LENGTH_UNIT ( ) NAMED_UNIT ( * ) SI_UNIT ( .MILLI., .METRE. ) );
#62 = APPROVAL ( #183, 'UNSPECIFIED' ) ;
#63 = ORIENTED_EDGE ( 'NONE', *, *, #217, .F. ) ;
#64 = CC_DESIGN_PERSON_AND_ORGANIZATION_ASSIGNMENT ( #147, #166, ( #153 ) ) ;
#65 = EDGE_LOOP ( 'NONE', ( #111 ) ) ;
#66 = AXIS2_PLACEMENT_3D ( 'NONE', #159, #13, #52 ) ;
#67 = CARTESIAN_POINT ( 'NONE',  ( 3.491481338843133986E-14, -1.224646799147353454E-15, 10.00000000000000178 ) ) ;
#68 = FACE_OUTER_BOUND ( 'NONE', #81, .T. ) ;
#69 = APPROVAL_PERSON_ORGANIZATION ( #192, #70, #74 ) ;
#70 = APPROVAL ( #177, 'UNSPECIFIED' ) ;
#71 = CALENDAR_DATE ( 2021, 8, 10 ) ;
#72 = PLANE ( 'NONE',  #99 ) ;
#73 = CARTESIAN_POINT ( 'NONE',  ( 1.332162460498604749E-15, 0.6349999999999988987, 0.3815464930825043788 ) ) ;
#74 = APPROVAL_ROLE ( '' ) ;
#75 = DIRECTION ( 'NONE',  ( 4.275831445896959482E-31, 1.000000000000000000, 1.224646799147353207E-16 ) ) ;
#76 = CARTESIAN_POINT ( 'NONE',  ( 1.040461438975253740E-13, 0.7499999999999962252, 29.80000000000000071 ) ) ;
#77 = CLOSED_SHELL ( 'NONE', ( #139, #154, #191 ) ) ;
#78 = ORIENTED_EDGE ( 'NONE', *, *, #146, .T. ) ;
#79 = DATE_AND_TIME ( #15, #164 ) ;
#80 = CC_DESIGN_PERSON_AND_ORGANIZATION_ASSIGNMENT ( #88, #122, ( #126 ) ) ;
#81 = EDGE_LOOP ( 'NONE', ( #106 ) ) ;
#82 = COORDINATED_UNIVERSAL_TIME_OFFSET ( 1, 0, .AHEAD. ) ;
#83 = FACE_OUTER_BOUND ( 'NONE', #45, .T. ) ;
#84 = CIRCLE ( 'NONE', #66, 0.6350000000000008971 ) ;
#85 = DIRECTION ( 'NONE',  ( 0.0000000000000000000, -1.000000000000000000, 0.0000000000000000000 ) ) ;
#86 = COORDINATED_UNIVERSAL_TIME_OFFSET ( 1, 0, .AHEAD. ) ;
#87 = CONICAL_SURFACE ( 'NONE', #135, 0.7499999999999976685, 0.5235987755982952629 ) ;
#88 = PERSON_AND_ORGANIZATION ( #172, #46 ) ;
#89 = FACE_OUTER_BOUND ( 'NONE', #12, .T. ) ;
#90 = CARTESIAN_POINT ( 'NONE',  ( 1.047444401652940007E-13, -3.673940397442059178E-15, 30.00000000000000000 ) ) ;
#91 = DATE_AND_TIME ( #104, #96 ) ;
#92 = CARTESIAN_POINT ( 'NONE',  ( 3.561026704177514062E-14, 0.7499999999999963363, 10.19918584287041874 ) ) ;
#93 = DATE_AND_TIME ( #222, #32 ) ;
#94 = CC_DESIGN_PERSON_AND_ORGANIZATION_ASSIGNMENT ( #205, #130, ( #2 ) ) ;
#95 = EDGE_LOOP ( 'NONE', ( #148 ) ) ;
#96 = LOCAL_TIME ( 7, 15, 13.00000000000000000, #43 ) ;
#97 = CC_DESIGN_PERSON_AND_ORGANIZATION_ASSIGNMENT ( #157, #194, ( #40 ) ) ;
#98 = FACE_OUTER_BOUND ( 'NONE', #184, .T. ) ;
#99 = AXIS2_PLACEMENT_3D ( 'NONE', #199, #27, #193 ) ;
#100 = MECHANICAL_CONTEXT ( 'NONE', #209, 'mechanical' ) ;
#101 = DIRECTION ( 'NONE',  ( -3.491481338843133355E-15, 1.224646799147353207E-16, -1.000000000000000000 ) ) ;
#102 = AXIS2_PLACEMENT_3D ( 'NONE', #170, #101, #75 ) ;
#103 = MANIFOLD_SOLID_BREP ( 'Corps-Déplacer/Copier1[1]', #179 ) ;
#104 = CALENDAR_DATE ( 2021, 8, 10 ) ;
#105 = DIRECTION ( 'NONE',  ( -4.275831445896958607E-31, -1.000000000000000000, -1.224646799147353207E-16 ) ) ;
#106 = ORIENTED_EDGE ( 'NONE', *, *, #17, .F. ) ;
#107 = ADVANCED_FACE ( 'NONE', ( #185 ), #72, .F. ) ;
#108 = APPROVAL_DATE_TIME ( #79, #171 ) ;
#109 = CARTESIAN_POINT ( 'NONE',  ( 1.332162460498604552E-15, -4.672596914793866679E-17, 0.3815464930825043233 ) ) ;
#110 = AXIS2_PLACEMENT_3D ( 'NONE', #221, #187, #35 ) ;
#111 = ORIENTED_EDGE ( 'NONE', *, *, #151, .T. ) ;
#112 = COORDINATED_UNIVERSAL_TIME_OFFSET ( 1, 0, .AHEAD. ) ;
#113 = EDGE_LOOP ( 'NONE', ( #10 ) ) ;
#114 = DIRECTION ( 'NONE',  ( 0.0000000000000000000, 1.000000000000000000, 0.0000000000000000000 ) ) ;
#115 = UNCERTAINTY_MEASURE_WITH_UNIT (LENGTH_MEASURE( 1.000000000000000082E-05 ), #61, 'distance_accuracy_value', 'NONE');
#116 = FACE_BOUND ( 'NONE', #51, .T. ) ;
#117 = CIRCLE ( 'NONE', #219, 0.7499999999999976685 ) ;
#118 = DIRECTION ( 'NONE',  ( -3.491481338843133355E-15, 1.224646799147353207E-16, -1.000000000000000000 ) ) ;
#119 = ADVANCED_FACE ( 'NONE', ( #89, #156 ), #11, .T. ) ;
#120 = CC_DESIGN_APPROVAL ( #171, ( #153 ) ) ;
#121 = CARTESIAN_POINT ( 'NONE',  ( 3.491481338843133986E-14, -2.076806179161253047E-31, 10.00000000000000178 ) ) ;
#122 = PERSON_AND_ORGANIZATION_ROLE ( 'design_owner' ) ;
#123 = DIRECTION ( 'NONE',  ( 1.000000000000000000, 0.0000000000000000000, 0.0000000000000000000 ) ) ;
#124 = APPROVAL_STATUS ( 'not_yet_approved' ) ;
#125 = VERTEX_POINT ( 'NONE', #73 ) ;
#126 = PRODUCT ( '55379', '55379', '', ( #100 ) ) ;
#127 = ORIENTED_EDGE ( 'NONE', *, *, #217, .T. ) ;
#128 = AXIS2_PLACEMENT_3D ( 'NONE', #109, #215, #196 ) ;
#129 = EDGE_LOOP ( 'NONE', ( #202 ) ) ;
#130 = PERSON_AND_ORGANIZATION_ROLE ( 'classification_officer' ) ;
#131 = FACE_OUTER_BOUND ( 'NONE', #129, .T. ) ;
#132 = CARTESIAN_POINT ( 'NONE',  ( 3.561026704177514062E-14, -1.249040029638025724E-15, 10.19918584287041874 ) ) ;
#133 = CC_DESIGN_PERSON_AND_ORGANIZATION_ASSIGNMENT ( #186, #149, ( #153 ) ) ;
#134 = DIRECTION ( 'NONE',  ( 0.0000000000000000000, 1.000000000000000000, 0.0000000000000000000 ) ) ;
#135 = AXIS2_PLACEMENT_3D ( 'NONE', #132, #169, #85 ) ;
#136 = DIRECTION ( 'NONE',  ( -3.491481338843133355E-15, 1.224646799147353207E-16, -1.000000000000000000 ) ) ;
#137 = PLANE ( 'NONE',  #24 ) ;
#138 = APPROVAL_DATE_TIME ( #31, #70 ) ;
#139 = ADVANCED_FACE ( 'NONE', ( #160 ), #4, .T. ) ;
#140 = DIRECTION ( 'NONE',  ( 0.0000000000000000000, 1.000000000000000000, 0.0000000000000000000 ) ) ;
#141 = VERTEX_POINT ( 'NONE', #92 ) ;
#142 = DIRECTION ( 'NONE',  ( 0.0000000000000000000, 0.0000000000000000000, 1.000000000000000000 ) ) ;
#143 = EDGE_LOOP ( 'NONE', ( #162 ) ) ;
#144 = SECURITY_CLASSIFICATION_LEVEL ( 'unclassified' ) ;
#145 =( GEOMETRIC_REPRESENTATION_CONTEXT ( 3 ) GLOBAL_UNCERTAINTY_ASSIGNED_CONTEXT ( ( #115 ) ) GLOBAL_UNIT_ASSIGNED_CONTEXT ( ( #61, #22, #29 ) ) REPRESENTATION_CONTEXT ( 'NONE', 'WORKASPACE' ) );
#146 = EDGE_CURVE ( 'NONE', #141, #141, #117, .T. ) ;
#147 = PERSON_AND_ORGANIZATION ( #172, #46 ) ;
#148 = ORIENTED_EDGE ( 'NONE', *, *, #58, .T. ) ;
#149 = PERSON_AND_ORGANIZATION_ROLE ( 'design_supplier' ) ;
#150 = APPROVAL_PERSON_ORGANIZATION ( #218, #62, #178 ) ;
#151 = EDGE_CURVE ( 'NONE', #173, #173, #189, .T. ) ;
#152 = AXIS2_PLACEMENT_3D ( 'NONE', #206, #55, #182 ) ;
#153 = PRODUCT_DEFINITION_FORMATION_WITH_SPECIFIED_SOURCE ( 'ANY', '', #126, .NOT_KNOWN. ) ;
#154 = ADVANCED_FACE ( 'NONE', ( #68, #19 ), #16, .T. ) ;
#155 = FACE_OUTER_BOUND ( 'NONE', #143, .T. ) ;
#156 = FACE_BOUND ( 'NONE', #95, .T. ) ;
#157 = PERSON_AND_ORGANIZATION ( #172, #46 ) ;
#158 = DATE_TIME_ROLE ( 'creation_date' ) ;
#159 = CARTESIAN_POINT ( 'NONE',  ( 3.491481338843133986E-14, -1.224646799147353454E-15, 10.00000000000000178 ) ) ;
#160 = FACE_OUTER_BOUND ( 'NONE', #113, .T. ) ;
#161 = AXIS2_PLACEMENT_3D ( 'NONE', #90, #176, #30 ) ;
#162 = ORIENTED_EDGE ( 'NONE', *, *, #146, .F. ) ;
#163 = AXIS2_PLACEMENT_3D ( 'NONE', #174, #142, #123 ) ;
#164 = LOCAL_TIME ( 7, 15, 13.00000000000000000, #112 ) ;
#165 = CARTESIAN_POINT ( 'NONE',  ( 1.047444401652940007E-13, -3.673940397442059178E-15, 30.00000000000000000 ) ) ;
#166 = PERSON_AND_ORGANIZATION_ROLE ( 'creator' ) ;
#167 = ORIENTED_EDGE ( 'NONE', *, *, #1, .F. ) ;
#168 = AXIS2_PLACEMENT_3D ( 'NONE', #39, #190, #207 ) ;
#169 = DIRECTION ( 'NONE',  ( 3.491481338843133355E-15, -1.224646799147353207E-16, 1.000000000000000000 ) ) ;
#170 = CARTESIAN_POINT ( 'NONE',  ( 0.0000000000000000000, 0.0000000000000000000, 0.0000000000000000000 ) ) ;
#171 = APPROVAL ( #124, 'UNSPECIFIED' ) ;
#172 = PERSON ( 'UNSPECIFIED', 'UNSPECIFIED', 'UNSPECIFIED', ('UNSPECIFIED'), ('UNSPECIFIED'), ('UNSPECIFIED') ) ;
#173 = VERTEX_POINT ( 'NONE', #175 ) ;
#174 = CARTESIAN_POINT ( 'NONE',  ( 0.0000000000000000000, 0.0000000000000000000, 0.0000000000000000000 ) ) ;
#175 = CARTESIAN_POINT ( 'NONE',  ( 3.491481338843133986E-14, 0.6349999999999996758, 10.00000000000000178 ) ) ;
#176 = DIRECTION ( 'NONE',  ( -3.491481338843133355E-15, 1.224646799147353207E-16, -1.000000000000000000 ) ) ;
#177 = APPROVAL_STATUS ( 'not_yet_approved' ) ;
#178 = APPROVAL_ROLE ( '' ) ;
#179 = CLOSED_SHELL ( 'NONE', ( #107, #180, #200, #119, #9 ) ) ;
#180 = ADVANCED_FACE ( 'NONE', ( #116, #98 ), #87, .T. ) ;
#181 = ORIENTED_EDGE ( 'NONE', *, *, #1, .T. ) ;
#182 = DIRECTION ( 'NONE',  ( 4.275831445896958607E-31, 1.000000000000000000, 1.224646799147353207E-16 ) ) ;
#183 = APPROVAL_STATUS ( 'not_yet_approved' ) ;
#184 = EDGE_LOOP ( 'NONE', ( #78 ) ) ;
#185 = FACE_OUTER_BOUND ( 'NONE', #65, .T. ) ;
#186 = PERSON_AND_ORGANIZATION ( #172, #46 ) ;
#187 = DIRECTION ( 'NONE',  ( -3.491481338843133355E-15, 1.224646799147353207E-16, -1.000000000000000000 ) ) ;
#188 = DIRECTION ( 'NONE',  ( 3.491481338843133355E-15, -1.224646799147353207E-16, 1.000000000000000000 ) ) ;
#189 = CIRCLE ( 'NONE', #14, 0.6350000000000008971 ) ;
#190 = DIRECTION ( 'NONE',  ( -3.491481338843133355E-15, 1.224646799147353207E-16, -1.000000000000000000 ) ) ;
#191 = ADVANCED_FACE ( 'NONE', ( #83 ), #137, .T. ) ;
#192 = PERSON_AND_ORGANIZATION ( #172, #46 ) ;
#193 = DIRECTION ( 'NONE',  ( -4.275831445896958607E-31, -1.000000000000000000, -1.224646799147353207E-16 ) ) ;
#194 = PERSON_AND_ORGANIZATION_ROLE ( 'creator' ) ;
#195 = APPROVAL_ROLE ( '' ) ;
#196 = DIRECTION ( 'NONE',  ( -3.032960542342109047E-31, -1.000000000000000000, -8.537024980200837349E-17 ) ) ;
#197 = VERTEX_POINT ( 'NONE', #76 ) ;
#198 = LOCAL_TIME ( 7, 15, 13.00000000000000000, #86 ) ;
#199 = CARTESIAN_POINT ( 'NONE',  ( 3.491481338843133986E-14, -2.076806179161253047E-31, 10.00000000000000178 ) ) ;
#200 = ADVANCED_FACE ( 'NONE', ( #155, #8 ), #213, .T. ) ;
#201 = APPROVAL_DATE_TIME ( #93, #62 ) ;
#202 = ORIENTED_EDGE ( 'NONE', *, *, #58, .F. ) ;
#203 = PRODUCT_DEFINITION_SHAPE ( 'NONE', 'NONE',  #40 ) ;
#204 = DIRECTION ( 'NONE',  ( -3.491481338843133355E-15, 1.224646799147353207E-16, -1.000000000000000000 ) ) ;
#205 = PERSON_AND_ORGANIZATION ( #172, #46 ) ;
#206 = CARTESIAN_POINT ( 'NONE',  ( 1.047444401652940007E-13, 4.124339402320052999E-33, 30.00000000000000000 ) ) ;
#207 = DIRECTION ( 'NONE',  ( 4.275831445896958607E-31, 1.000000000000000000, 1.224646799147353207E-16 ) ) ;
#208 = AXIS2_PLACEMENT_3D ( 'NONE', #165, #204, #114 ) ;
#209 = APPLICATION_CONTEXT ( 'configuration controlled 3d designs of mechanical parts and assemblies' ) ;
#210 = CIRCLE ( 'NONE', #41, 0.7499999999999998890 ) ;
#211 = APPROVAL_PERSON_ORGANIZATION ( #6, #171, #195 ) ;
#212 = DESIGN_CONTEXT ( 'detailed design', #21, 'design' ) ;
#213 = CYLINDRICAL_SURFACE ( 'NONE', #102, 0.7499999999999986677 ) ;
#214 = CARTESIAN_POINT ( 'NONE',  ( 3.491481338843133986E-14, 0.6349999999999996758, 10.00000000000000178 ) ) ;
#215 = DIRECTION ( 'NONE',  ( 3.491481338843133355E-15, -1.224646799147353207E-16, 1.000000000000000000 ) ) ;
#216 = APPLICATION_PROTOCOL_DEFINITION ( 'international standard', 'config_control_design', 1994, #21 ) ;
#217 = EDGE_CURVE ( 'NONE', #197, #197, #210, .T. ) ;
#218 = PERSON_AND_ORGANIZATION ( #172, #46 ) ;
#219 = AXIS2_PLACEMENT_3D ( 'NONE', #23, #118, #57 ) ;
#220 = LOCAL_TIME ( 7, 15, 13.00000000000000000, #82 ) ;
#221 = CARTESIAN_POINT ( 'NONE',  ( 1.332162460498604552E-15, -4.672596914793866679E-17, 0.3815464930825043233 ) ) ;
#222 = CALENDAR_DATE ( 2021, 8, 10 ) ;
#223 = EDGE_LOOP ( 'NONE', ( #181 ) ) ;
ENDSEC;
END-ISO-10303-21;
