ISO-10303-21;
HEADER;
FILE_DESCRIPTION (( 'STEP AP203' ),
    '1' );
FILE_NAME ('55378.step',
    '2021-10-08T05:15:12',
    ( '' ),
    ( '' ),
    'SwSTEP 2.0',
    'SolidWorks 2019',
    '' );
FILE_SCHEMA (( 'CONFIG_CONTROL_DESIGN' ));
ENDSEC;

DATA;
#1 = AXIS2_PLACEMENT_3D ( 'NONE', #12, #83, #158 ) ;
#2 = VERTEX_POINT ( 'NONE', #131 ) ;
#3 = ADVANCED_FACE ( 'NONE', ( #217 ), #71, .T. ) ;
#4 = DATE_AND_TIME ( #182, #60 ) ;
#5 = EDGE_LOOP ( 'NONE', ( #23 ) ) ;
#6 =( NAMED_UNIT ( * ) PLANE_ANGLE_UNIT ( ) SI_UNIT ( $, .RADIAN. ) );
#7 = DIRECTION ( 'NONE',  ( -3.491481338843133355E-15, 1.224646799147353207E-16, -1.000000000000000000 ) ) ;
#8 = PERSON_AND_ORGANIZATION_ROLE ( 'design_owner' ) ;
#9 = CYLINDRICAL_SURFACE ( 'NONE', #34, 0.6299999999999998934 ) ;
#10 = CALENDAR_DATE ( 2021, 8, 10 ) ;
#11 = EDGE_LOOP ( 'NONE', ( #112 ) ) ;
#12 = CARTESIAN_POINT ( 'NONE',  ( 1.047444401652940007E-13, 4.124339402320052999E-33, 30.00000000000000000 ) ) ;
#13 = AXIS2_PLACEMENT_3D ( 'NONE', #126, #140, #206 ) ;
#14 = APPROVAL_PERSON_ORGANIZATION ( #121, #17, #66 ) ;
#15 = CARTESIAN_POINT ( 'NONE',  ( 0.0000000000000000000, 0.0000000000000000000, 0.0000000000000000000 ) ) ;
#16 = PERSON ( 'UNSPECIFIED', 'UNSPECIFIED', 'UNSPECIFIED', ('UNSPECIFIED'), ('UNSPECIFIED'), ('UNSPECIFIED') ) ;
#17 = APPROVAL ( #84, 'UNSPECIFIED' ) ;
#18 = LOCAL_TIME ( 7, 15, 12.00000000000000000, #205 ) ;
#19 = MANIFOLD_SOLID_BREP ( 'Corps-Déplacer/Copier1[2]', #40 ) ;
#20 = FACE_OUTER_BOUND ( 'NONE', #55, .T. ) ;
#21 = CONICAL_SURFACE ( 'NONE', #160, 0.5500000000000000444, 0.7853981633974510546 ) ;
#22 = APPROVAL_DATE_TIME ( #4, #68 ) ;
#23 = ORIENTED_EDGE ( 'NONE', *, *, #37, .F. ) ;
#24 = APPROVAL_ROLE ( '' ) ;
#25 = FACE_OUTER_BOUND ( 'NONE', #11, .T. ) ;
#26 = PERSON_AND_ORGANIZATION ( #16, #162 ) ;
#27 = ADVANCED_FACE ( 'NONE', ( #25, #156 ), #21, .T. ) ;
#28 = EDGE_LOOP ( 'NONE', ( #58 ) ) ;
#29 = APPROVAL_DATE_TIME ( #86, #192 ) ;
#30 = PRODUCT_DEFINITION ( 'UNKNOWN', '', #208, #173 ) ;
#31 = DIRECTION ( 'NONE',  ( 3.491481338843133355E-15, -1.224646799147353207E-16, 1.000000000000000000 ) ) ;
#32 = DATE_TIME_ROLE ( 'creation_date' ) ;
#33 = UNCERTAINTY_MEASURE_WITH_UNIT (LENGTH_MEASURE( 1.000000000000000082E-05 ), #212, 'distance_accuracy_value', 'NONE');
#34 = AXIS2_PLACEMENT_3D ( 'NONE', #201, #7, #120 ) ;
#35 = CIRCLE ( 'NONE', #176, 0.7499999999999976685 ) ;
#36 = AXIS2_PLACEMENT_3D ( 'NONE', #100, #150, #171 ) ;
#37 = EDGE_CURVE ( 'NONE', #42, #42, #103, .T. ) ;
#38 = MECHANICAL_CONTEXT ( 'NONE', #108, 'mechanical' ) ;
#39 = VERTEX_POINT ( 'NONE', #165 ) ;
#40 = CLOSED_SHELL ( 'NONE', ( #3, #52, #128 ) ) ;
#41 = EDGE_LOOP ( 'NONE', ( #186 ) ) ;
#42 = VERTEX_POINT ( 'NONE', #56 ) ;
#43 = LOCAL_TIME ( 7, 15, 12.00000000000000000, #101 ) ;
#44 =( NAMED_UNIT ( * ) SI_UNIT ( $, .STERADIAN. ) SOLID_ANGLE_UNIT ( ) );
#45 = EDGE_CURVE ( 'NONE', #216, #216, #93, .T. ) ;
#46 = EDGE_LOOP ( 'NONE', ( #136 ) ) ;
#47 = PRODUCT_RELATED_PRODUCT_CATEGORY ( 'detail', '', ( #145 ) ) ;
#48 = FACE_OUTER_BOUND ( 'NONE', #5, .T. ) ;
#49 = PERSON_AND_ORGANIZATION_ROLE ( 'creator' ) ;
#50 = PERSON_AND_ORGANIZATION ( #16, #162 ) ;
#51 = LOCAL_TIME ( 7, 15, 12.00000000000000000, #137 ) ;
#52 = ADVANCED_FACE ( 'NONE', ( #48, #96 ), #9, .T. ) ;
#53 = DIRECTION ( 'NONE',  ( 0.0000000000000000000, 1.000000000000000000, 0.0000000000000000000 ) ) ;
#54 = DIRECTION ( 'NONE',  ( -3.491481338843133355E-15, 1.224646799147353207E-16, -1.000000000000000000 ) ) ;
#55 = EDGE_LOOP ( 'NONE', ( #95 ) ) ;
#56 = CARTESIAN_POINT ( 'NONE',  ( 1.321672992305702268E-15, 0.6299999999999987832, 0.3785421899873665508 ) ) ;
#57 = CARTESIAN_POINT ( 'NONE',  ( 3.491481338843133986E-14, 0.6299999999999998934, 10.00000000000000178 ) ) ;
#58 = ORIENTED_EDGE ( 'NONE', *, *, #37, .T. ) ;
#59 = EDGE_CURVE ( 'NONE', #146, #146, #65, .T. ) ;
#60 = LOCAL_TIME ( 7, 15, 12.00000000000000000, #163 ) ;
#61 = CC_DESIGN_PERSON_AND_ORGANIZATION_ASSIGNMENT ( #202, #49, ( #30 ) ) ;
#62 = CARTESIAN_POINT ( 'NONE',  ( 1.047444401652940007E-13, -3.673940397442059178E-15, 30.00000000000000000 ) ) ;
#63 = APPROVAL_ROLE ( '' ) ;
#64 = CARTESIAN_POINT ( 'NONE',  ( 1.321672992305702071E-15, -4.635804813102576021E-17, 0.3785421899873664953 ) ) ;
#65 = CIRCLE ( 'NONE', #36, 0.6300000000000011147 ) ;
#66 = APPROVAL_ROLE ( '' ) ;
#67 = CARTESIAN_POINT ( 'NONE',  ( 3.564050415713791566E-14, -1.250100604876750768E-15, 10.20784609690826450 ) ) ;
#68 = APPROVAL ( #179, 'UNSPECIFIED' ) ;
#69 = DIRECTION ( 'NONE',  ( 3.491481338843133355E-15, -1.224646799147353207E-16, 1.000000000000000000 ) ) ;
#70 = CC_DESIGN_SECURITY_CLASSIFICATION ( #80, ( #208 ) ) ;
#71 = CONICAL_SURFACE ( 'NONE', #193, 0.6299999999999987832, 1.029744258676649649 ) ;
#72 = AXIS2_PLACEMENT_3D ( 'NONE', #147, #54, #218 ) ;
#73 = CARTESIAN_POINT ( 'NONE',  ( 3.491481338843133986E-14, -2.077181119106918979E-31, 10.00000000000000178 ) ) ;
#74 = DIRECTION ( 'NONE',  ( 0.0000000000000000000, 0.0000000000000000000, 1.000000000000000000 ) ) ;
#75 = ORIENTED_EDGE ( 'NONE', *, *, #124, .F. ) ;
#76 = CYLINDRICAL_SURFACE ( 'NONE', #72, 0.7499999999999986677 ) ;
#77 = EDGE_LOOP ( 'NONE', ( #116 ) ) ;
#78 = DIRECTION ( 'NONE',  ( -3.491481338843133355E-15, 1.224646799147353207E-16, -1.000000000000000000 ) ) ;
#79 = DATE_AND_TIME ( #174, #51 ) ;
#80 = SECURITY_CLASSIFICATION ( '', '', #102 ) ;
#81 = CARTESIAN_POINT ( 'NONE',  ( 1.321672992305702071E-15, -4.635804813102576021E-17, 0.3785421899873664953 ) ) ;
#82 = APPROVAL_STATUS ( 'not_yet_approved' ) ;
#83 = DIRECTION ( 'NONE',  ( -3.491481338843133355E-15, 1.224646799147353207E-16, -1.000000000000000000 ) ) ;
#84 = APPROVAL_STATUS ( 'not_yet_approved' ) ;
#85 = CONICAL_SURFACE ( 'NONE', #115, 0.7499999999999976685, 0.5235987755982930425 ) ;
#86 = DATE_AND_TIME ( #10, #18 ) ;
#87 = ADVANCED_BREP_SHAPE_REPRESENTATION ( '55378', ( #106, #19, #190 ), #110 ) ;
#88 = ADVANCED_FACE ( 'NONE', ( #117 ), #185, .F. ) ;
#89 = CC_DESIGN_DATE_AND_TIME_ASSIGNMENT ( #170, #204, ( #80 ) ) ;
#90 = APPLICATION_PROTOCOL_DEFINITION ( 'international standard', 'config_control_design', 1994, #198 ) ;
#91 = CARTESIAN_POINT ( 'NONE',  ( 3.564050415713791566E-14, -1.250100604876750768E-15, 10.20784609690826450 ) ) ;
#92 = VERTEX_POINT ( 'NONE', #180 ) ;
#93 = CIRCLE ( 'NONE', #222, 0.5500000000000000444 ) ;
#94 = DIRECTION ( 'NONE',  ( 3.491481338843133355E-15, -1.224646799147353207E-16, 1.000000000000000000 ) ) ;
#95 = ORIENTED_EDGE ( 'NONE', *, *, #124, .T. ) ;
#96 = FACE_OUTER_BOUND ( 'NONE', #194, .T. ) ;
#97 = CALENDAR_DATE ( 2021, 8, 10 ) ;
#98 = ORIENTED_EDGE ( 'NONE', *, *, #59, .T. ) ;
#99 = CALENDAR_DATE ( 2021, 8, 10 ) ;
#100 = CARTESIAN_POINT ( 'NONE',  ( 3.491481338843133986E-14, -1.224646799147353454E-15, 10.00000000000000178 ) ) ;
#101 = COORDINATED_UNIVERSAL_TIME_OFFSET ( 1, 0, .AHEAD. ) ;
#102 = SECURITY_CLASSIFICATION_LEVEL ( 'unclassified' ) ;
#103 = CIRCLE ( 'NONE', #175, 0.6299999999999987832 ) ;
#104 = AXIS2_PLACEMENT_3D ( 'NONE', #73, #94, #149 ) ;
#105 = EDGE_CURVE ( 'NONE', #2, #2, #139, .T. ) ;
#106 = MANIFOLD_SOLID_BREP ( 'Corps-Déplacer/Copier1[1]', #143 ) ;
#107 = DIRECTION ( 'NONE',  ( 0.0000000000000000000, 1.000000000000000000, 0.0000000000000000000 ) ) ;
#108 = APPLICATION_CONTEXT ( 'configuration controlled 3d designs of mechanical parts and assemblies' ) ;
#109 = ADVANCED_FACE ( 'NONE', ( #125, #177 ), #85, .T. ) ;
#110 =( GEOMETRIC_REPRESENTATION_CONTEXT ( 3 ) GLOBAL_UNCERTAINTY_ASSIGNED_CONTEXT ( ( #33 ) ) GLOBAL_UNIT_ASSIGNED_CONTEXT ( ( #212, #6, #44 ) ) REPRESENTATION_CONTEXT ( 'NONE', 'WORKASPACE' ) );
#111 = PERSON_AND_ORGANIZATION ( #16, #162 ) ;
#112 = ORIENTED_EDGE ( 'NONE', *, *, #105, .F. ) ;
#113 = FACE_OUTER_BOUND ( 'NONE', #169, .T. ) ;
#114 = PERSON_AND_ORGANIZATION ( #16, #162 ) ;
#115 = AXIS2_PLACEMENT_3D ( 'NONE', #67, #69, #142 ) ;
#116 = ORIENTED_EDGE ( 'NONE', *, *, #59, .F. ) ;
#117 = FACE_OUTER_BOUND ( 'NONE', #199, .T. ) ;
#118 = EDGE_LOOP ( 'NONE', ( #75 ) ) ;
#119 = PERSON_AND_ORGANIZATION ( #16, #162 ) ;
#120 = DIRECTION ( 'NONE',  ( 4.275831445896958607E-31, 1.000000000000000000, 1.224646799147353454E-16 ) ) ;
#121 = PERSON_AND_ORGANIZATION ( #16, #162 ) ;
#122 = PERSON_AND_ORGANIZATION_ROLE ( 'classification_officer' ) ;
#123 = FACE_OUTER_BOUND ( 'NONE', #77, .T. ) ;
#124 = EDGE_CURVE ( 'NONE', #92, #92, #181, .T. ) ;
#125 = FACE_BOUND ( 'NONE', #118, .T. ) ;
#126 = CARTESIAN_POINT ( 'NONE',  ( 3.491481338843133986E-14, -1.224646799147353454E-15, 10.00000000000000178 ) ) ;
#127 = PRODUCT_DEFINITION_SHAPE ( 'NONE', 'NONE',  #30 ) ;
#128 = ADVANCED_FACE ( 'NONE', ( #123 ), #151, .T. ) ;
#129 = CC_DESIGN_PERSON_AND_ORGANIZATION_ASSIGNMENT ( #114, #8, ( #145 ) ) ;
#130 = DIRECTION ( 'NONE',  ( -4.275831445896958607E-31, -1.000000000000000000, -1.224646799147353207E-16 ) ) ;
#131 = CARTESIAN_POINT ( 'NONE',  ( 1.040461438975253740E-13, 0.7499999999999962252, 29.80000000000000071 ) ) ;
#132 = DIRECTION ( 'NONE',  ( -3.491481338843133355E-15, 1.224646799147353207E-16, -1.000000000000000000 ) ) ;
#133 = AXIS2_PLACEMENT_3D ( 'NONE', #197, #215, #130 ) ;
#134 = DIRECTION ( 'NONE',  ( 0.0000000000000000000, 1.000000000000000000, 0.0000000000000000000 ) ) ;
#135 = APPROVAL_DATE_TIME ( #172, #17 ) ;
#136 = ORIENTED_EDGE ( 'NONE', *, *, #45, .T. ) ;
#137 = COORDINATED_UNIVERSAL_TIME_OFFSET ( 1, 0, .AHEAD. ) ;
#138 = CC_DESIGN_PERSON_AND_ORGANIZATION_ASSIGNMENT ( #50, #153, ( #208 ) ) ;
#139 = CIRCLE ( 'NONE', #210, 0.7499999999999998890 ) ;
#140 = DIRECTION ( 'NONE',  ( -3.491481338843133355E-15, 1.224646799147353207E-16, -1.000000000000000000 ) ) ;
#141 = DIRECTION ( 'NONE',  ( -3.491481338843133355E-15, 1.224646799147353207E-16, -1.000000000000000000 ) ) ;
#142 = DIRECTION ( 'NONE',  ( 0.0000000000000000000, -1.000000000000000000, 0.0000000000000000000 ) ) ;
#143 = CLOSED_SHELL ( 'NONE', ( #191, #109, #161, #27, #88 ) ) ;
#144 = APPROVAL_PERSON_ORGANIZATION ( #111, #68, #24 ) ;
#145 = PRODUCT ( '55378', '55378', '', ( #38 ) ) ;
#146 = VERTEX_POINT ( 'NONE', #57 ) ;
#147 = CARTESIAN_POINT ( 'NONE',  ( 0.0000000000000000000, 0.0000000000000000000, 0.0000000000000000000 ) ) ;
#148 = ORIENTED_EDGE ( 'NONE', *, *, #45, .F. ) ;
#149 = DIRECTION ( 'NONE',  ( -4.275831445896958607E-31, -1.000000000000000000, -1.224646799147353207E-16 ) ) ;
#150 = DIRECTION ( 'NONE',  ( -3.491481338843133355E-15, 1.224646799147353207E-16, -1.000000000000000000 ) ) ;
#151 = PLANE ( 'NONE',  #104 ) ;
#152 = DIRECTION ( 'NONE',  ( 0.0000000000000000000, 1.000000000000000000, 0.0000000000000000000 ) ) ;
#153 = PERSON_AND_ORGANIZATION_ROLE ( 'creator' ) ;
#154 = CC_DESIGN_APPROVAL ( #192, ( #208 ) ) ;
#155 = EDGE_CURVE ( 'NONE', #39, #39, #35, .T. ) ;
#156 = FACE_BOUND ( 'NONE', #46, .T. ) ;
#157 = PERSON_AND_ORGANIZATION_ROLE ( 'design_supplier' ) ;
#158 = DIRECTION ( 'NONE',  ( 4.275831445896958607E-31, 1.000000000000000000, 1.224646799147353207E-16 ) ) ;
#159 = SHAPE_DEFINITION_REPRESENTATION ( #127, #87 ) ;
#160 = AXIS2_PLACEMENT_3D ( 'NONE', #62, #221, #134 ) ;
#161 = ADVANCED_FACE ( 'NONE', ( #113, #164 ), #76, .T. ) ;
#162 = ORGANIZATION ( 'UNSPECIFIED', 'UNSPECIFIED', '' ) ;
#163 = COORDINATED_UNIVERSAL_TIME_OFFSET ( 1, 0, .AHEAD. ) ;
#164 = FACE_OUTER_BOUND ( 'NONE', #214, .T. ) ;
#165 = CARTESIAN_POINT ( 'NONE',  ( 3.564050415713791566E-14, 0.7499999999999963363, 10.20784609690826450 ) ) ;
#166 = DIRECTION ( 'NONE',  ( -3.491481338843133355E-15, 1.224646799147353207E-16, -1.000000000000000000 ) ) ;
#167 = CARTESIAN_POINT ( 'NONE',  ( 1.040461438975253740E-13, -3.649447461459112464E-15, 29.80000000000000071 ) ) ;
#168 = CC_DESIGN_PERSON_AND_ORGANIZATION_ASSIGNMENT ( #26, #122, ( #80 ) ) ;
#169 = EDGE_LOOP ( 'NONE', ( #188 ) ) ;
#170 = DATE_AND_TIME ( #99, #211 ) ;
#171 = DIRECTION ( 'NONE',  ( 0.0000000000000000000, 1.000000000000000000, 0.0000000000000000000 ) ) ;
#172 = DATE_AND_TIME ( #97, #43 ) ;
#173 = DESIGN_CONTEXT ( 'detailed design', #198, 'design' ) ;
#174 = CALENDAR_DATE ( 2021, 8, 10 ) ;
#175 = AXIS2_PLACEMENT_3D ( 'NONE', #64, #166, #203 ) ;
#176 = AXIS2_PLACEMENT_3D ( 'NONE', #91, #78, #53 ) ;
#177 = FACE_OUTER_BOUND ( 'NONE', #41, .T. ) ;
#178 = APPROVAL_PERSON_ORGANIZATION ( #189, #192, #63 ) ;
#179 = APPROVAL_STATUS ( 'not_yet_approved' ) ;
#180 = CARTESIAN_POINT ( 'NONE',  ( 3.491481338843133986E-14, 0.6299999999999998934, 10.00000000000000178 ) ) ;
#181 = CIRCLE ( 'NONE', #13, 0.6300000000000011147 ) ;
#182 = CALENDAR_DATE ( 2021, 8, 10 ) ;
#183 = DIRECTION ( 'NONE',  ( -3.057031657757523226E-31, -1.000000000000000000, -8.604779146710369535E-17 ) ) ;
#184 = CARTESIAN_POINT ( 'NONE',  ( 1.047444401652940007E-13, 0.5499999999999963807, 30.00000000000000000 ) ) ;
#185 = PLANE ( 'NONE',  #1 ) ;
#186 = ORIENTED_EDGE ( 'NONE', *, *, #155, .T. ) ;
#187 = COORDINATED_UNIVERSAL_TIME_OFFSET ( 1, 0, .AHEAD. ) ;
#188 = ORIENTED_EDGE ( 'NONE', *, *, #155, .F. ) ;
#189 = PERSON_AND_ORGANIZATION ( #16, #162 ) ;
#190 = AXIS2_PLACEMENT_3D ( 'NONE', #15, #74, #200 ) ;
#191 = ADVANCED_FACE ( 'NONE', ( #20 ), #195, .F. ) ;
#192 = APPROVAL ( #82, 'UNSPECIFIED' ) ;
#193 = AXIS2_PLACEMENT_3D ( 'NONE', #81, #31, #183 ) ;
#194 = EDGE_LOOP ( 'NONE', ( #98 ) ) ;
#195 = PLANE ( 'NONE',  #133 ) ;
#196 = APPLICATION_PROTOCOL_DEFINITION ( 'international standard', 'config_control_design', 1994, #108 ) ;
#197 = CARTESIAN_POINT ( 'NONE',  ( 3.491481338843133986E-14, -2.077181119106918979E-31, 10.00000000000000178 ) ) ;
#198 = APPLICATION_CONTEXT ( 'configuration controlled 3d designs of mechanical parts and assemblies' ) ;
#199 = EDGE_LOOP ( 'NONE', ( #148 ) ) ;
#200 = DIRECTION ( 'NONE',  ( 1.000000000000000000, 0.0000000000000000000, 0.0000000000000000000 ) ) ;
#201 = CARTESIAN_POINT ( 'NONE',  ( 0.0000000000000000000, 0.0000000000000000000, 0.0000000000000000000 ) ) ;
#202 = PERSON_AND_ORGANIZATION ( #16, #162 ) ;
#203 = DIRECTION ( 'NONE',  ( 3.057031657757523226E-31, 1.000000000000000000, 8.604779146710369535E-17 ) ) ;
#204 = DATE_TIME_ROLE ( 'classification_date' ) ;
#205 = COORDINATED_UNIVERSAL_TIME_OFFSET ( 1, 0, .AHEAD. ) ;
#206 = DIRECTION ( 'NONE',  ( 0.0000000000000000000, 1.000000000000000000, 0.0000000000000000000 ) ) ;
#207 = CC_DESIGN_DATE_AND_TIME_ASSIGNMENT ( #79, #32, ( #30 ) ) ;
#208 = PRODUCT_DEFINITION_FORMATION_WITH_SPECIFIED_SOURCE ( 'ANY', '', #145, .NOT_KNOWN. ) ;
#209 = CC_DESIGN_APPROVAL ( #17, ( #80 ) ) ;
#210 = AXIS2_PLACEMENT_3D ( 'NONE', #167, #141, #107 ) ;
#211 = LOCAL_TIME ( 7, 15, 12.00000000000000000, #187 ) ;
#212 =( LENGTH_UNIT ( ) NAMED_UNIT ( * ) SI_UNIT ( .MILLI., .METRE. ) );
#213 = CC_DESIGN_PERSON_AND_ORGANIZATION_ASSIGNMENT ( #119, #157, ( #208 ) ) ;
#214 = EDGE_LOOP ( 'NONE', ( #220 ) ) ;
#215 = DIRECTION ( 'NONE',  ( 3.491481338843133355E-15, -1.224646799147353207E-16, 1.000000000000000000 ) ) ;
#216 = VERTEX_POINT ( 'NONE', #184 ) ;
#217 = FACE_OUTER_BOUND ( 'NONE', #28, .T. ) ;
#218 = DIRECTION ( 'NONE',  ( 4.275831445896959482E-31, 1.000000000000000000, 1.224646799147353207E-16 ) ) ;
#219 = CC_DESIGN_APPROVAL ( #68, ( #30 ) ) ;
#220 = ORIENTED_EDGE ( 'NONE', *, *, #105, .T. ) ;
#221 = DIRECTION ( 'NONE',  ( -3.491481338843133355E-15, 1.224646799147353207E-16, -1.000000000000000000 ) ) ;
#222 = AXIS2_PLACEMENT_3D ( 'NONE', #223, #132, #152 ) ;
#223 = CARTESIAN_POINT ( 'NONE',  ( 1.047444401652940007E-13, -3.673940397442059178E-15, 30.00000000000000000 ) ) ;
ENDSEC;
END-ISO-10303-21;
