ISO-10303-21;
HEADER;
FILE_DESCRIPTION (( 'STEP AP203' ),
    '1' );
FILE_NAME ('55377.step',
    '2021-10-08T05:15:12',
    ( '' ),
    ( '' ),
    'SwSTEP 2.0',
    'SolidWorks 2019',
    '' );
FILE_SCHEMA (( 'CONFIG_CONTROL_DESIGN' ));
ENDSEC;

DATA;
#1 = CARTESIAN_POINT ( 'NONE',  ( 1.311183524112799788E-15, 0.6249999999999987788, 0.3755378868922287228 ) ) ;
#2 = DIRECTION ( 'NONE',  ( 4.275831445896959482E-31, 1.000000000000000000, 1.224646799147353207E-16 ) ) ;
#3 = AXIS2_PLACEMENT_3D ( 'NONE', #4, #60, #186 ) ;
#4 = CARTESIAN_POINT ( 'NONE',  ( 3.491481338843133355E-14, 4.686749320818284498E-33, 10.00000000000000000 ) ) ;
#5 = APPROVAL_PERSON_ORGANIZATION ( #95, #189, #120 ) ;
#6 = CC_DESIGN_PERSON_AND_ORGANIZATION_ASSIGNMENT ( #80, #98, ( #108 ) ) ;
#7 = CC_DESIGN_APPROVAL ( #73, ( #155 ) ) ;
#8 = VERTEX_POINT ( 'NONE', #219 ) ;
#9 = DIRECTION ( 'NONE',  ( 0.0000000000000000000, 1.000000000000000000, 0.0000000000000000000 ) ) ;
#10 = VERTEX_POINT ( 'NONE', #167 ) ;
#11 = FACE_OUTER_BOUND ( 'NONE', #135, .T. ) ;
#12 = DATE_AND_TIME ( #181, #170 ) ;
#13 = LOCAL_TIME ( 7, 15, 12.00000000000000000, #39 ) ;
#14 = CC_DESIGN_PERSON_AND_ORGANIZATION_ASSIGNMENT ( #185, #133, ( #87 ) ) ;
#15 = APPROVAL_DATE_TIME ( #168, #189 ) ;
#16 = DIRECTION ( 'NONE',  ( -3.491481338843133355E-15, 1.224646799147353207E-16, -1.000000000000000000 ) ) ;
#17 = CC_DESIGN_PERSON_AND_ORGANIZATION_ASSIGNMENT ( #212, #134, ( #155 ) ) ;
#18 = FACE_OUTER_BOUND ( 'NONE', #114, .T. ) ;
#19 = ADVANCED_FACE ( 'NONE', ( #46, #11 ), #192, .T. ) ;
#20 = SHAPE_DEFINITION_REPRESENTATION ( #214, #194 ) ;
#21 = PERSON_AND_ORGANIZATION ( #50, #110 ) ;
#22 = APPROVAL_PERSON_ORGANIZATION ( #69, #73, #166 ) ;
#23 = MANIFOLD_SOLID_BREP ( 'Corps-Déplacer/Copier1[2]', #176 ) ;
#24 = ADVANCED_FACE ( 'NONE', ( #18 ), #82, .F. ) ;
#25 = CC_DESIGN_SECURITY_CLASSIFICATION ( #104, ( #155 ) ) ;
#26 = AXIS2_PLACEMENT_3D ( 'NONE', #45, #177, #48 ) ;
#27 = DIRECTION ( 'NONE',  ( 3.491481338843133355E-15, -1.224646799147353207E-16, 1.000000000000000000 ) ) ;
#28 = FACE_OUTER_BOUND ( 'NONE', #111, .T. ) ;
#29 = DIRECTION ( 'NONE',  ( 0.0000000000000000000, 1.000000000000000000, 0.0000000000000000000 ) ) ;
#30 = LOCAL_TIME ( 7, 15, 12.00000000000000000, #74 ) ;
#31 = VERTEX_POINT ( 'NONE', #200 ) ;
#32 = CC_DESIGN_PERSON_AND_ORGANIZATION_ASSIGNMENT ( #21, #36, ( #155 ) ) ;
#33 = APPLICATION_PROTOCOL_DEFINITION ( 'international standard', 'config_control_design', 1994, #125 ) ;
#34 = CALENDAR_DATE ( 2021, 8, 10 ) ;
#35 = CARTESIAN_POINT ( 'NONE',  ( 0.0000000000000000000, 0.0000000000000000000, 0.0000000000000000000 ) ) ;
#36 = PERSON_AND_ORGANIZATION_ROLE ( 'creator' ) ;
#37 = CC_DESIGN_APPROVAL ( #54, ( #104 ) ) ;
#38 = UNCERTAINTY_MEASURE_WITH_UNIT (LENGTH_MEASURE( 1.000000000000000082E-05 ), #103, 'distance_accuracy_value', 'NONE');
#39 = COORDINATED_UNIVERSAL_TIME_OFFSET ( 1, 0, .AHEAD. ) ;
#40 = ADVANCED_FACE ( 'NONE', ( #115 ), #160, .F. ) ;
#41 = ORIENTED_EDGE ( 'NONE', *, *, #77, .T. ) ;
#42 =( GEOMETRIC_REPRESENTATION_CONTEXT ( 3 ) GLOBAL_UNCERTAINTY_ASSIGNED_CONTEXT ( ( #38 ) ) GLOBAL_UNIT_ASSIGNED_CONTEXT ( ( #103, #127, #131 ) ) REPRESENTATION_CONTEXT ( 'NONE', 'WORKASPACE' ) );
#43 = EDGE_CURVE ( 'NONE', #164, #164, #190, .T. ) ;
#44 = EDGE_LOOP ( 'NONE', ( #174 ) ) ;
#45 = CARTESIAN_POINT ( 'NONE',  ( 1.047444401652940007E-13, -3.673940397442059178E-15, 30.00000000000000000 ) ) ;
#46 = FACE_OUTER_BOUND ( 'NONE', #187, .T. ) ;
#47 = CONICAL_SURFACE ( 'NONE', #163, 0.6249999999999987788, 1.029744258676649649 ) ;
#48 = DIRECTION ( 'NONE',  ( 0.0000000000000000000, 1.000000000000000000, 0.0000000000000000000 ) ) ;
#49 = DATE_TIME_ROLE ( 'creation_date' ) ;
#50 = PERSON ( 'UNSPECIFIED', 'UNSPECIFIED', 'UNSPECIFIED', ('UNSPECIFIED'), ('UNSPECIFIED'), ('UNSPECIFIED') ) ;
#51 = DIRECTION ( 'NONE',  ( 1.000000000000000000, 0.0000000000000000000, 0.0000000000000000000 ) ) ;
#52 = AXIS2_PLACEMENT_3D ( 'NONE', #220, #206, #51 ) ;
#53 = DATE_AND_TIME ( #85, #222 ) ;
#54 = APPROVAL ( #173, 'UNSPECIFIED' ) ;
#55 = DATE_AND_TIME ( #122, #30 ) ;
#56 = AXIS2_PLACEMENT_3D ( 'NONE', #93, #162, #151 ) ;
#57 = CC_DESIGN_DATE_AND_TIME_ASSIGNMENT ( #55, #193, ( #104 ) ) ;
#58 = DESIGN_CONTEXT ( 'detailed design', #125, 'design' ) ;
#59 = DATE_AND_TIME ( #211, #13 ) ;
#60 = DIRECTION ( 'NONE',  ( 3.491481338843133355E-15, -1.224646799147353207E-16, 1.000000000000000000 ) ) ;
#61 = ADVANCED_FACE ( 'NONE', ( #205, #117 ), #99, .T. ) ;
#62 = DIRECTION ( 'NONE',  ( -3.491481338843133355E-15, 1.224646799147353207E-16, -1.000000000000000000 ) ) ;
#63 = CONICAL_SURFACE ( 'NONE', #147, 0.5500000000000000444, 0.7853981633974510546 ) ;
#64 = DIRECTION ( 'NONE',  ( 3.081487911019583496E-31, 1.000000000000000000, 8.673617379884052728E-17 ) ) ;
#65 = AXIS2_PLACEMENT_3D ( 'NONE', #139, #159, #216 ) ;
#66 = FACE_BOUND ( 'NONE', #102, .T. ) ;
#67 = COORDINATED_UNIVERSAL_TIME_OFFSET ( 1, 0, .AHEAD. ) ;
#68 = EDGE_LOOP ( 'NONE', ( #89 ) ) ;
#69 = PERSON_AND_ORGANIZATION ( #50, #110 ) ;
#70 = AXIS2_PLACEMENT_3D ( 'NONE', #144, #62, #203 ) ;
#71 = CARTESIAN_POINT ( 'NONE',  ( 3.567074127250069070E-14, -1.251161180115475615E-15, 10.21650635094610671 ) ) ;
#72 = ORIENTED_EDGE ( 'NONE', *, *, #90, .T. ) ;
#73 = APPROVAL ( #116, 'UNSPECIFIED' ) ;
#74 = COORDINATED_UNIVERSAL_TIME_OFFSET ( 1, 0, .AHEAD. ) ;
#75 = APPLICATION_CONTEXT ( 'configuration controlled 3d designs of mechanical parts and assemblies' ) ;
#76 = CC_DESIGN_DATE_AND_TIME_ASSIGNMENT ( #53, #49, ( #108 ) ) ;
#77 = EDGE_CURVE ( 'NONE', #10, #10, #150, .T. ) ;
#78 = CARTESIAN_POINT ( 'NONE',  ( 1.311183524112799591E-15, -4.599012711411285980E-17, 0.3755378868922286673 ) ) ;
#79 = DIRECTION ( 'NONE',  ( -3.081487911019583496E-31, -1.000000000000000000, -8.673617379884052728E-17 ) ) ;
#80 = PERSON_AND_ORGANIZATION ( #50, #110 ) ;
#81 = CLOSED_SHELL ( 'NONE', ( #24, #105, #61, #113, #40 ) ) ;
#82 = PLANE ( 'NONE',  #223 ) ;
#83 = CARTESIAN_POINT ( 'NONE',  ( 1.311183524112799591E-15, -4.599012711411285980E-17, 0.3755378868922286673 ) ) ;
#84 = DIRECTION ( 'NONE',  ( -3.491481338843133355E-15, 1.224646799147353207E-16, -1.000000000000000000 ) ) ;
#85 = CALENDAR_DATE ( 2021, 8, 10 ) ;
#86 = DIRECTION ( 'NONE',  ( 0.0000000000000000000, 1.000000000000000000, 0.0000000000000000000 ) ) ;
#87 = PRODUCT ( '55377', '55377', '', ( #112 ) ) ;
#88 = PERSON_AND_ORGANIZATION_ROLE ( 'classification_officer' ) ;
#89 = ORIENTED_EDGE ( 'NONE', *, *, #196, .T. ) ;
#90 = EDGE_CURVE ( 'NONE', #31, #31, #188, .T. ) ;
#91 = DIRECTION ( 'NONE',  ( 0.0000000000000000000, -1.000000000000000000, 0.0000000000000000000 ) ) ;
#92 = AXIS2_PLACEMENT_3D ( 'NONE', #35, #183, #2 ) ;
#93 = CARTESIAN_POINT ( 'NONE',  ( 0.0000000000000000000, 0.0000000000000000000, 0.0000000000000000000 ) ) ;
#94 = AXIS2_PLACEMENT_3D ( 'NONE', #83, #145, #64 ) ;
#95 = PERSON_AND_ORGANIZATION ( #50, #110 ) ;
#96 = VERTEX_POINT ( 'NONE', #1 ) ;
#97 = ORIENTED_EDGE ( 'NONE', *, *, #172, .T. ) ;
#98 = PERSON_AND_ORGANIZATION_ROLE ( 'creator' ) ;
#99 = CYLINDRICAL_SURFACE ( 'NONE', #56, 0.7499999999999986677 ) ;
#100 = CARTESIAN_POINT ( 'NONE',  ( 1.047444401652940007E-13, -3.673940397442059178E-15, 30.00000000000000000 ) ) ;
#101 = MANIFOLD_SOLID_BREP ( 'Corps-Déplacer/Copier1[1]', #81 ) ;
#102 = EDGE_LOOP ( 'NONE', ( #191 ) ) ;
#103 =( LENGTH_UNIT ( ) NAMED_UNIT ( * ) SI_UNIT ( .MILLI., .METRE. ) );
#104 = SECURITY_CLASSIFICATION ( '', '', #137 ) ;
#105 = ADVANCED_FACE ( 'NONE', ( #165, #28 ), #201, .T. ) ;
#106 = ORIENTED_EDGE ( 'NONE', *, *, #180, .F. ) ;
#107 = EDGE_LOOP ( 'NONE', ( #184 ) ) ;
#108 = PRODUCT_DEFINITION ( 'UNKNOWN', '', #155, #58 ) ;
#109 = EDGE_LOOP ( 'NONE', ( #169 ) ) ;
#110 = ORGANIZATION ( 'UNSPECIFIED', 'UNSPECIFIED', '' ) ;
#111 = EDGE_LOOP ( 'NONE', ( #97 ) ) ;
#112 = MECHANICAL_CONTEXT ( 'NONE', #75, 'mechanical' ) ;
#113 = ADVANCED_FACE ( 'NONE', ( #146, #66 ), #63, .T. ) ;
#114 = EDGE_LOOP ( 'NONE', ( #72 ) ) ;
#115 = FACE_OUTER_BOUND ( 'NONE', #109, .T. ) ;
#116 = APPROVAL_STATUS ( 'not_yet_approved' ) ;
#117 = FACE_OUTER_BOUND ( 'NONE', #107, .T. ) ;
#118 = ADVANCED_FACE ( 'NONE', ( #154 ), #47, .T. ) ;
#119 = CIRCLE ( 'NONE', #94, 0.6249999999999987788 ) ;
#120 = APPROVAL_ROLE ( '' ) ;
#121 = COORDINATED_UNIVERSAL_TIME_OFFSET ( 1, 0, .AHEAD. ) ;
#122 = CALENDAR_DATE ( 2021, 8, 10 ) ;
#123 = CC_DESIGN_PERSON_AND_ORGANIZATION_ASSIGNMENT ( #175, #88, ( #104 ) ) ;
#124 = AXIS2_PLACEMENT_3D ( 'NONE', #71, #16, #138 ) ;
#125 = APPLICATION_CONTEXT ( 'configuration controlled 3d designs of mechanical parts and assemblies' ) ;
#126 = CARTESIAN_POINT ( 'NONE',  ( 3.491481338843133355E-14, -1.224646799147353256E-15, 10.00000000000000000 ) ) ;
#127 =( NAMED_UNIT ( * ) PLANE_ANGLE_UNIT ( ) SI_UNIT ( $, .RADIAN. ) );
#128 = APPROVAL_PERSON_ORGANIZATION ( #210, #54, #158 ) ;
#129 = DIRECTION ( 'NONE',  ( -4.275831445896958607E-31, -1.000000000000000000, -1.224646799147353207E-16 ) ) ;
#130 = APPLICATION_PROTOCOL_DEFINITION ( 'international standard', 'config_control_design', 1994, #75 ) ;
#131 =( NAMED_UNIT ( * ) SI_UNIT ( $, .STERADIAN. ) SOLID_ANGLE_UNIT ( ) );
#132 = AXIS2_PLACEMENT_3D ( 'NONE', #149, #143, #29 ) ;
#133 = PERSON_AND_ORGANIZATION_ROLE ( 'design_owner' ) ;
#134 = PERSON_AND_ORGANIZATION_ROLE ( 'design_supplier' ) ;
#135 = EDGE_LOOP ( 'NONE', ( #41 ) ) ;
#136 = ORIENTED_EDGE ( 'NONE', *, *, #90, .F. ) ;
#137 = SECURITY_CLASSIFICATION_LEVEL ( 'unclassified' ) ;
#138 = DIRECTION ( 'NONE',  ( 0.0000000000000000000, 1.000000000000000000, 0.0000000000000000000 ) ) ;
#139 = CARTESIAN_POINT ( 'NONE',  ( 1.047444401652940007E-13, 4.124339402320052999E-33, 30.00000000000000000 ) ) ;
#140 = EDGE_LOOP ( 'NONE', ( #136 ) ) ;
#141 = AXIS2_PLACEMENT_3D ( 'NONE', #215, #197, #91 ) ;
#142 = DIRECTION ( 'NONE',  ( 3.491481338843133355E-15, -1.224646799147353207E-16, 1.000000000000000000 ) ) ;
#143 = DIRECTION ( 'NONE',  ( -3.491481338843133355E-15, 1.224646799147353207E-16, -1.000000000000000000 ) ) ;
#144 = CARTESIAN_POINT ( 'NONE',  ( 3.491481338843133355E-14, -1.224646799147353256E-15, 10.00000000000000000 ) ) ;
#145 = DIRECTION ( 'NONE',  ( -3.491481338843133355E-15, 1.224646799147353207E-16, -1.000000000000000000 ) ) ;
#146 = FACE_OUTER_BOUND ( 'NONE', #171, .T. ) ;
#147 = AXIS2_PLACEMENT_3D ( 'NONE', #100, #84, #86 ) ;
#148 = ADVANCED_FACE ( 'NONE', ( #198 ), #195, .T. ) ;
#149 = CARTESIAN_POINT ( 'NONE',  ( 1.040461438975253740E-13, -3.649447461459112464E-15, 29.80000000000000071 ) ) ;
#150 = CIRCLE ( 'NONE', #218, 0.6249999999999995559 ) ;
#151 = DIRECTION ( 'NONE',  ( 4.275831445896959482E-31, 1.000000000000000000, 1.224646799147353207E-16 ) ) ;
#152 = CARTESIAN_POINT ( 'NONE',  ( 3.491481338843133355E-14, 4.686749320818284498E-33, 10.00000000000000000 ) ) ;
#153 = VERTEX_POINT ( 'NONE', #208 ) ;
#154 = FACE_OUTER_BOUND ( 'NONE', #68, .T. ) ;
#155 = PRODUCT_DEFINITION_FORMATION_WITH_SPECIFIED_SOURCE ( 'ANY', '', #87, .NOT_KNOWN. ) ;
#156 = APPROVAL_DATE_TIME ( #12, #73 ) ;
#157 = APPROVAL_DATE_TIME ( #59, #54 ) ;
#158 = APPROVAL_ROLE ( '' ) ;
#159 = DIRECTION ( 'NONE',  ( -3.491481338843133355E-15, 1.224646799147353207E-16, -1.000000000000000000 ) ) ;
#160 = PLANE ( 'NONE',  #65 ) ;
#161 = ORIENTED_EDGE ( 'NONE', *, *, #172, .F. ) ;
#162 = DIRECTION ( 'NONE',  ( -3.491481338843133355E-15, 1.224646799147353207E-16, -1.000000000000000000 ) ) ;
#163 = AXIS2_PLACEMENT_3D ( 'NONE', #78, #27, #79 ) ;
#164 = VERTEX_POINT ( 'NONE', #182 ) ;
#165 = FACE_BOUND ( 'NONE', #140, .T. ) ;
#166 = APPROVAL_ROLE ( '' ) ;
#167 = CARTESIAN_POINT ( 'NONE',  ( 3.491481338843133355E-14, 0.6249999999999983347, 10.00000000000000000 ) ) ;
#168 = DATE_AND_TIME ( #34, #202 ) ;
#169 = ORIENTED_EDGE ( 'NONE', *, *, #43, .F. ) ;
#170 = LOCAL_TIME ( 7, 15, 12.00000000000000000, #121 ) ;
#171 = EDGE_LOOP ( 'NONE', ( #106 ) ) ;
#172 = EDGE_CURVE ( 'NONE', #8, #8, #213, .T. ) ;
#173 = APPROVAL_STATUS ( 'not_yet_approved' ) ;
#174 = ORIENTED_EDGE ( 'NONE', *, *, #77, .F. ) ;
#175 = PERSON_AND_ORGANIZATION ( #50, #110 ) ;
#176 = CLOSED_SHELL ( 'NONE', ( #118, #19, #148 ) ) ;
#177 = DIRECTION ( 'NONE',  ( -3.491481338843133355E-15, 1.224646799147353207E-16, -1.000000000000000000 ) ) ;
#178 = DIRECTION ( 'NONE',  ( -3.491481338843133355E-15, 1.224646799147353207E-16, -1.000000000000000000 ) ) ;
#179 = APPROVAL_STATUS ( 'not_yet_approved' ) ;
#180 = EDGE_CURVE ( 'NONE', #153, #153, #207, .T. ) ;
#181 = CALENDAR_DATE ( 2021, 8, 10 ) ;
#182 = CARTESIAN_POINT ( 'NONE',  ( 1.047444401652940007E-13, 0.5499999999999963807, 30.00000000000000000 ) ) ;
#183 = DIRECTION ( 'NONE',  ( -3.491481338843133355E-15, 1.224646799147353207E-16, -1.000000000000000000 ) ) ;
#184 = ORIENTED_EDGE ( 'NONE', *, *, #180, .T. ) ;
#185 = PERSON_AND_ORGANIZATION ( #50, #110 ) ;
#186 = DIRECTION ( 'NONE',  ( -4.275831445896958607E-31, -1.000000000000000000, -1.224646799147353207E-16 ) ) ;
#187 = EDGE_LOOP ( 'NONE', ( #199 ) ) ;
#188 = CIRCLE ( 'NONE', #70, 0.6249999999999995559 ) ;
#189 = APPROVAL ( #179, 'UNSPECIFIED' ) ;
#190 = CIRCLE ( 'NONE', #26, 0.5500000000000000444 ) ;
#191 = ORIENTED_EDGE ( 'NONE', *, *, #43, .T. ) ;
#192 = CYLINDRICAL_SURFACE ( 'NONE', #92, 0.6249999999999992228 ) ;
#193 = DATE_TIME_ROLE ( 'classification_date' ) ;
#194 = ADVANCED_BREP_SHAPE_REPRESENTATION ( '55377', ( #101, #23, #52 ), #42 ) ;
#195 = PLANE ( 'NONE',  #3 ) ;
#196 = EDGE_CURVE ( 'NONE', #96, #96, #119, .T. ) ;
#197 = DIRECTION ( 'NONE',  ( 3.491481338843133355E-15, -1.224646799147353207E-16, 1.000000000000000000 ) ) ;
#198 = FACE_OUTER_BOUND ( 'NONE', #44, .T. ) ;
#199 = ORIENTED_EDGE ( 'NONE', *, *, #196, .F. ) ;
#200 = CARTESIAN_POINT ( 'NONE',  ( 3.491481338843133355E-14, 0.6249999999999983347, 10.00000000000000000 ) ) ;
#201 = CONICAL_SURFACE ( 'NONE', #141, 0.7499999999999976685, 0.5235987755982969283 ) ;
#202 = LOCAL_TIME ( 7, 15, 12.00000000000000000, #67 ) ;
#203 = DIRECTION ( 'NONE',  ( 0.0000000000000000000, 1.000000000000000000, 0.0000000000000000000 ) ) ;
#204 = COORDINATED_UNIVERSAL_TIME_OFFSET ( 1, 0, .AHEAD. ) ;
#205 = FACE_OUTER_BOUND ( 'NONE', #221, .T. ) ;
#206 = DIRECTION ( 'NONE',  ( 0.0000000000000000000, 0.0000000000000000000, 1.000000000000000000 ) ) ;
#207 = CIRCLE ( 'NONE', #132, 0.7499999999999998890 ) ;
#208 = CARTESIAN_POINT ( 'NONE',  ( 1.040461438975253740E-13, 0.7499999999999962252, 29.80000000000000071 ) ) ;
#209 = CC_DESIGN_APPROVAL ( #189, ( #108 ) ) ;
#210 = PERSON_AND_ORGANIZATION ( #50, #110 ) ;
#211 = CALENDAR_DATE ( 2021, 8, 10 ) ;
#212 = PERSON_AND_ORGANIZATION ( #50, #110 ) ;
#213 = CIRCLE ( 'NONE', #124, 0.7499999999999976685 ) ;
#214 = PRODUCT_DEFINITION_SHAPE ( 'NONE', 'NONE',  #108 ) ;
#215 = CARTESIAN_POINT ( 'NONE',  ( 3.567074127250069070E-14, -1.251161180115475615E-15, 10.21650635094610671 ) ) ;
#216 = DIRECTION ( 'NONE',  ( 4.275831445896958607E-31, 1.000000000000000000, 1.224646799147353207E-16 ) ) ;
#217 = PRODUCT_RELATED_PRODUCT_CATEGORY ( 'detail', '', ( #87 ) ) ;
#218 = AXIS2_PLACEMENT_3D ( 'NONE', #126, #178, #9 ) ;
#219 = CARTESIAN_POINT ( 'NONE',  ( 3.567074127250069070E-14, 0.7499999999999963363, 10.21650635094610671 ) ) ;
#220 = CARTESIAN_POINT ( 'NONE',  ( 0.0000000000000000000, 0.0000000000000000000, 0.0000000000000000000 ) ) ;
#221 = EDGE_LOOP ( 'NONE', ( #161 ) ) ;
#222 = LOCAL_TIME ( 7, 15, 12.00000000000000000, #204 ) ;
#223 = AXIS2_PLACEMENT_3D ( 'NONE', #152, #142, #129 ) ;
ENDSEC;
END-ISO-10303-21;
