ISO-10303-21;
HEADER;
FILE_DESCRIPTION (( 'STEP AP203' ),
    '1' );
FILE_NAME ('55376.step',
    '2021-10-08T05:15:11',
    ( '' ),
    ( '' ),
    'SwSTEP 2.0',
    'SolidWorks 2019',
    '' );
FILE_SCHEMA (( 'CONFIG_CONTROL_DESIGN' ));
ENDSEC;

DATA;
#1 =( NAMED_UNIT ( * ) SI_UNIT ( $, .STERADIAN. ) SOLID_ANGLE_UNIT ( ) );
#2 = PERSON_AND_ORGANIZATION ( #165, #15 ) ;
#3 = DIRECTION ( 'NONE',  ( 0.0000000000000000000, 1.000000000000000000, 0.0000000000000000000 ) ) ;
#4 = ORIENTED_EDGE ( 'NONE', *, *, #206, .T. ) ;
#5 = DIRECTION ( 'NONE',  ( 0.0000000000000000000, 1.000000000000000000, 0.0000000000000000000 ) ) ;
#6 = EDGE_LOOP ( 'NONE', ( #212 ) ) ;
#7 = CIRCLE ( 'NONE', #164, 0.6199999999999987743 ) ;
#8 = EDGE_LOOP ( 'NONE', ( #155 ) ) ;
#9 = AXIS2_PLACEMENT_3D ( 'NONE', #138, #32, #3 ) ;
#10 = CARTESIAN_POINT ( 'NONE',  ( 1.047444401652940007E-13, -3.673940397442059178E-15, 30.00000000000000000 ) ) ;
#11 = FACE_OUTER_BOUND ( 'NONE', #122, .T. ) ;
#12 = CC_DESIGN_APPROVAL ( #119, ( #145 ) ) ;
#13 = CARTESIAN_POINT ( 'NONE',  ( 3.491481338843133355E-14, 0.6199999999999981082, 10.00000000000000000 ) ) ;
#14 = COORDINATED_UNIVERSAL_TIME_OFFSET ( 1, 0, .AHEAD. ) ;
#15 = ORGANIZATION ( 'UNSPECIFIED', 'UNSPECIFIED', '' ) ;
#16 = MANIFOLD_SOLID_BREP ( 'Corps-Déplacer/Copier1[2]', #223 ) ;
#17 = ORIENTED_EDGE ( 'NONE', *, *, #99, .T. ) ;
#18 = PRODUCT_DEFINITION_FORMATION_WITH_SPECIFIED_SOURCE ( 'ANY', '', #24, .NOT_KNOWN. ) ;
#19 = DIRECTION ( 'NONE',  ( 0.0000000000000000000, 1.000000000000000000, 0.0000000000000000000 ) ) ;
#20 = APPROVAL_DATE_TIME ( #50, #84 ) ;
#21 = CC_DESIGN_DATE_AND_TIME_ASSIGNMENT ( #196, #100, ( #116 ) ) ;
#22 = DIRECTION ( 'NONE',  ( 4.275831445896958607E-31, 1.000000000000000000, 1.224646799147353207E-16 ) ) ;
#23 = FACE_OUTER_BOUND ( 'NONE', #6, .T. ) ;
#24 = PRODUCT ( '55376', '55376', '', ( #214 ) ) ;
#25 = ORIENTED_EDGE ( 'NONE', *, *, #123, .T. ) ;
#26 = AXIS2_PLACEMENT_3D ( 'NONE', #200, #163, #19 ) ;
#27 = CARTESIAN_POINT ( 'NONE',  ( 1.040461438975253740E-13, 0.7499999999999962252, 29.80000000000000071 ) ) ;
#28 = CIRCLE ( 'NONE', #74, 0.7499999999999976685 ) ;
#29 = FACE_OUTER_BOUND ( 'NONE', #8, .T. ) ;
#30 = ADVANCED_BREP_SHAPE_REPRESENTATION ( '55376', ( #79, #16, #77 ), #121 ) ;
#31 = EDGE_CURVE ( 'NONE', #189, #189, #36, .T. ) ;
#32 = DIRECTION ( 'NONE',  ( -3.491481338843133355E-15, 1.224646799147353207E-16, -1.000000000000000000 ) ) ;
#33 = PERSON_AND_ORGANIZATION_ROLE ( 'design_supplier' ) ;
#34 = PERSON_AND_ORGANIZATION ( #165, #15 ) ;
#35 = DESIGN_CONTEXT ( 'detailed design', #109, 'design' ) ;
#36 = CIRCLE ( 'NONE', #26, 0.6199999999999993294 ) ;
#37 = AXIS2_PLACEMENT_3D ( 'NONE', #218, #101, #60 ) ;
#38 = DIRECTION ( 'NONE',  ( -3.491481338843133355E-15, 1.224646799147353207E-16, -1.000000000000000000 ) ) ;
#39 = DIRECTION ( 'NONE',  ( -4.275831445896958607E-31, -1.000000000000000000, -1.224646799147353207E-16 ) ) ;
#40 = CC_DESIGN_PERSON_AND_ORGANIZATION_ASSIGNMENT ( #2, #33, ( #18 ) ) ;
#41 = COORDINATED_UNIVERSAL_TIME_OFFSET ( 1, 0, .AHEAD. ) ;
#42 = CARTESIAN_POINT ( 'NONE',  ( 3.491481338843133355E-14, 4.649255326251735731E-33, 10.00000000000000000 ) ) ;
#43 = ADVANCED_FACE ( 'NONE', ( #143 ), #125, .T. ) ;
#44 = EDGE_LOOP ( 'NONE', ( #25 ) ) ;
#45 = ADVANCED_FACE ( 'NONE', ( #103, #160 ), #152, .T. ) ;
#46 = LOCAL_TIME ( 7, 15, 11.00000000000000000, #106 ) ;
#47 = ADVANCED_FACE ( 'NONE', ( #140, #57 ), #180, .T. ) ;
#48 = APPROVAL_STATUS ( 'not_yet_approved' ) ;
#49 = DATE_TIME_ROLE ( 'classification_date' ) ;
#50 = DATE_AND_TIME ( #91, #156 ) ;
#51 = CARTESIAN_POINT ( 'NONE',  ( 1.300694055919897308E-15, 0.6199999999999987743, 0.3725335837970908393 ) ) ;
#52 = COORDINATED_UNIVERSAL_TIME_OFFSET ( 1, 0, .AHEAD. ) ;
#53 = CARTESIAN_POINT ( 'NONE',  ( 3.570097838786346574E-14, -1.252221755354200462E-15, 10.22516660498395247 ) ) ;
#54 = PLANE ( 'NONE',  #142 ) ;
#55 = AXIS2_PLACEMENT_3D ( 'NONE', #10, #128, #83 ) ;
#56 = CC_DESIGN_DATE_AND_TIME_ASSIGNMENT ( #115, #49, ( #145 ) ) ;
#57 = FACE_OUTER_BOUND ( 'NONE', #211, .T. ) ;
#58 = UNCERTAINTY_MEASURE_WITH_UNIT (LENGTH_MEASURE( 1.000000000000000082E-05 ), #88, 'distance_accuracy_value', 'NONE');
#59 = CC_DESIGN_PERSON_AND_ORGANIZATION_ASSIGNMENT ( #153, #209, ( #145 ) ) ;
#60 = DIRECTION ( 'NONE',  ( 0.0000000000000000000, -1.000000000000000000, 0.0000000000000000000 ) ) ;
#61 = CARTESIAN_POINT ( 'NONE',  ( 3.491481338843133355E-14, 4.649255326251735731E-33, 10.00000000000000000 ) ) ;
#62 = CIRCLE ( 'NONE', #55, 0.5500000000000000444 ) ;
#63 = VERTEX_POINT ( 'NONE', #210 ) ;
#64 = EDGE_LOOP ( 'NONE', ( #97 ) ) ;
#65 = CIRCLE ( 'NONE', #148, 0.7499999999999998890 ) ;
#66 = PERSON_AND_ORGANIZATION_ROLE ( 'creator' ) ;
#67 = DIRECTION ( 'NONE',  ( -4.275831445896958607E-31, -1.000000000000000000, -1.224646799147353207E-16 ) ) ;
#68 = AXIS2_PLACEMENT_3D ( 'NONE', #130, #108, #190 ) ;
#69 = CLOSED_SHELL ( 'NONE', ( #86, #45, #132, #136, #188 ) ) ;
#70 = CARTESIAN_POINT ( 'NONE',  ( 3.491481338843133355E-14, 0.6199999999999981082, 10.00000000000000000 ) ) ;
#71 = APPROVAL ( #48, 'UNSPECIFIED' ) ;
#72 = DIRECTION ( 'NONE',  ( 3.491481338843133355E-15, -1.224646799147353207E-16, 1.000000000000000000 ) ) ;
#73 = CC_DESIGN_APPROVAL ( #84, ( #18 ) ) ;
#74 = AXIS2_PLACEMENT_3D ( 'NONE', #53, #113, #92 ) ;
#75 = SECURITY_CLASSIFICATION_LEVEL ( 'unclassified' ) ;
#76 = FACE_BOUND ( 'NONE', #144, .T. ) ;
#77 = AXIS2_PLACEMENT_3D ( 'NONE', #158, #135, #124 ) ;
#78 = ORIENTED_EDGE ( 'NONE', *, *, #159, .T. ) ;
#79 = MANIFOLD_SOLID_BREP ( 'Corps-Déplacer/Copier1[1]', #69 ) ;
#80 = ORIENTED_EDGE ( 'NONE', *, *, #31, .T. ) ;
#81 = CARTESIAN_POINT ( 'NONE',  ( 0.0000000000000000000, 0.0000000000000000000, 0.0000000000000000000 ) ) ;
#82 = PERSON_AND_ORGANIZATION_ROLE ( 'design_owner' ) ;
#83 = DIRECTION ( 'NONE',  ( 0.0000000000000000000, 1.000000000000000000, 0.0000000000000000000 ) ) ;
#84 = APPROVAL ( #179, 'UNSPECIFIED' ) ;
#85 = EDGE_LOOP ( 'NONE', ( #4 ) ) ;
#86 = ADVANCED_FACE ( 'NONE', ( #11 ), #54, .F. ) ;
#87 = LOCAL_TIME ( 7, 15, 11.00000000000000000, #52 ) ;
#88 =( LENGTH_UNIT ( ) NAMED_UNIT ( * ) SI_UNIT ( .MILLI., .METRE. ) );
#89 = CALENDAR_DATE ( 2021, 8, 10 ) ;
#90 = CARTESIAN_POINT ( 'NONE',  ( 1.300694055919897111E-15, -4.562220609719994706E-17, 0.3725335837970907837 ) ) ;
#91 = CALENDAR_DATE ( 2021, 8, 10 ) ;
#92 = DIRECTION ( 'NONE',  ( 0.0000000000000000000, 1.000000000000000000, 0.0000000000000000000 ) ) ;
#93 = PERSON_AND_ORGANIZATION ( #165, #15 ) ;
#94 = CC_DESIGN_SECURITY_CLASSIFICATION ( #145, ( #18 ) ) ;
#95 = ORIENTED_EDGE ( 'NONE', *, *, #181, .T. ) ;
#96 = CYLINDRICAL_SURFACE ( 'NONE', #162, 0.7499999999999986677 ) ;
#97 = ORIENTED_EDGE ( 'NONE', *, *, #31, .F. ) ;
#98 = APPLICATION_PROTOCOL_DEFINITION ( 'international standard', 'config_control_design', 1994, #109 ) ;
#99 = EDGE_CURVE ( 'NONE', #151, #151, #7, .T. ) ;
#100 = DATE_TIME_ROLE ( 'creation_date' ) ;
#101 = DIRECTION ( 'NONE',  ( 3.491481338843133355E-15, -1.224646799147353207E-16, 1.000000000000000000 ) ) ;
#102 = PERSON_AND_ORGANIZATION ( #165, #15 ) ;
#103 = FACE_BOUND ( 'NONE', #64, .T. ) ;
#104 = APPROVAL_PERSON_ORGANIZATION ( #93, #119, #169 ) ;
#105 = CARTESIAN_POINT ( 'NONE',  ( 3.570097838786346574E-14, 0.7499999999999963363, 10.22516660498395247 ) ) ;
#106 = COORDINATED_UNIVERSAL_TIME_OFFSET ( 1, 0, .AHEAD. ) ;
#107 = SHAPE_DEFINITION_REPRESENTATION ( #203, #30 ) ;
#108 = DIRECTION ( 'NONE',  ( -3.491481338843133355E-15, 1.224646799147353207E-16, -1.000000000000000000 ) ) ;
#109 = APPLICATION_CONTEXT ( 'configuration controlled 3d designs of mechanical parts and assemblies' ) ;
#110 = FACE_OUTER_BOUND ( 'NONE', #194, .T. ) ;
#111 = CC_DESIGN_PERSON_AND_ORGANIZATION_ASSIGNMENT ( #176, #66, ( #116 ) ) ;
#112 = APPROVAL_ROLE ( '' ) ;
#113 = DIRECTION ( 'NONE',  ( -3.491481338843133355E-15, 1.224646799147353207E-16, -1.000000000000000000 ) ) ;
#114 = DATE_AND_TIME ( #133, #215 ) ;
#115 = DATE_AND_TIME ( #89, #87 ) ;
#116 = PRODUCT_DEFINITION ( 'UNKNOWN', '', #18, #35 ) ;
#117 = EDGE_LOOP ( 'NONE', ( #175 ) ) ;
#118 = VERTEX_POINT ( 'NONE', #70 ) ;
#119 = APPROVAL ( #184, 'UNSPECIFIED' ) ;
#120 = DIRECTION ( 'NONE',  ( -3.491481338843133355E-15, 1.224646799147353207E-16, -1.000000000000000000 ) ) ;
#121 =( GEOMETRIC_REPRESENTATION_CONTEXT ( 3 ) GLOBAL_UNCERTAINTY_ASSIGNED_CONTEXT ( ( #58 ) ) GLOBAL_UNIT_ASSIGNED_CONTEXT ( ( #88, #134, #1 ) ) REPRESENTATION_CONTEXT ( 'NONE', 'WORKASPACE' ) );
#122 = EDGE_LOOP ( 'NONE', ( #80 ) ) ;
#123 = EDGE_CURVE ( 'NONE', #185, #185, #65, .T. ) ;
#124 = DIRECTION ( 'NONE',  ( 1.000000000000000000, 0.0000000000000000000, 0.0000000000000000000 ) ) ;
#125 = PLANE ( 'NONE',  #170 ) ;
#126 = ORIENTED_EDGE ( 'NONE', *, *, #123, .F. ) ;
#127 = CONICAL_SURFACE ( 'NONE', #9, 0.5500000000000000444, 0.7853981633974510546 ) ;
#128 = DIRECTION ( 'NONE',  ( -3.491481338843133355E-15, 1.224646799147353207E-16, -1.000000000000000000 ) ) ;
#129 = AXIS2_PLACEMENT_3D ( 'NONE', #90, #150, #221 ) ;
#130 = CARTESIAN_POINT ( 'NONE',  ( 3.491481338843133355E-14, -1.224646799147353256E-15, 10.00000000000000000 ) ) ;
#131 = PERSON_AND_ORGANIZATION ( #165, #15 ) ;
#132 = ADVANCED_FACE ( 'NONE', ( #23, #199 ), #96, .T. ) ;
#133 = CALENDAR_DATE ( 2021, 8, 10 ) ;
#134 =( NAMED_UNIT ( * ) PLANE_ANGLE_UNIT ( ) SI_UNIT ( $, .RADIAN. ) );
#135 = DIRECTION ( 'NONE',  ( 0.0000000000000000000, 0.0000000000000000000, 1.000000000000000000 ) ) ;
#136 = ADVANCED_FACE ( 'NONE', ( #192, #76 ), #127, .T. ) ;
#137 = CC_DESIGN_APPROVAL ( #71, ( #116 ) ) ;
#138 = CARTESIAN_POINT ( 'NONE',  ( 1.047444401652940007E-13, -3.673940397442059178E-15, 30.00000000000000000 ) ) ;
#139 = CALENDAR_DATE ( 2021, 8, 10 ) ;
#140 = FACE_OUTER_BOUND ( 'NONE', #117, .T. ) ;
#141 = CARTESIAN_POINT ( 'NONE',  ( 1.300694055919897111E-15, -4.562220609719994706E-17, 0.3725335837970907837 ) ) ;
#142 = AXIS2_PLACEMENT_3D ( 'NONE', #61, #72, #67 ) ;
#143 = FACE_OUTER_BOUND ( 'NONE', #161, .T. ) ;
#144 = EDGE_LOOP ( 'NONE', ( #78 ) ) ;
#145 = SECURITY_CLASSIFICATION ( '', '', #75 ) ;
#146 = VERTEX_POINT ( 'NONE', #105 ) ;
#147 = APPROVAL_ROLE ( '' ) ;
#148 = AXIS2_PLACEMENT_3D ( 'NONE', #178, #174, #5 ) ;
#149 = COORDINATED_UNIVERSAL_TIME_OFFSET ( 1, 0, .AHEAD. ) ;
#150 = DIRECTION ( 'NONE',  ( 3.491481338843133355E-15, -1.224646799147353207E-16, 1.000000000000000000 ) ) ;
#151 = VERTEX_POINT ( 'NONE', #51 ) ;
#152 = CONICAL_SURFACE ( 'NONE', #37, 0.7499999999999976685, 0.5235987755982962621 ) ;
#153 = PERSON_AND_ORGANIZATION ( #165, #15 ) ;
#154 = APPLICATION_PROTOCOL_DEFINITION ( 'international standard', 'config_control_design', 1994, #220 ) ;
#155 = ORIENTED_EDGE ( 'NONE', *, *, #159, .F. ) ;
#156 = LOCAL_TIME ( 7, 15, 11.00000000000000000, #14 ) ;
#157 = ORIENTED_EDGE ( 'NONE', *, *, #181, .F. ) ;
#158 = CARTESIAN_POINT ( 'NONE',  ( 0.0000000000000000000, 0.0000000000000000000, 0.0000000000000000000 ) ) ;
#159 = EDGE_CURVE ( 'NONE', #63, #63, #62, .T. ) ;
#160 = FACE_OUTER_BOUND ( 'NONE', #85, .T. ) ;
#161 = EDGE_LOOP ( 'NONE', ( #157 ) ) ;
#162 = AXIS2_PLACEMENT_3D ( 'NONE', #81, #120, #173 ) ;
#163 = DIRECTION ( 'NONE',  ( -3.491481338843133355E-15, 1.224646799147353207E-16, -1.000000000000000000 ) ) ;
#164 = AXIS2_PLACEMENT_3D ( 'NONE', #141, #193, #213 ) ;
#165 = PERSON ( 'UNSPECIFIED', 'UNSPECIFIED', 'UNSPECIFIED', ('UNSPECIFIED'), ('UNSPECIFIED'), ('UNSPECIFIED') ) ;
#166 = CARTESIAN_POINT ( 'NONE',  ( 1.047444401652940007E-13, 4.124339402320052999E-33, 30.00000000000000000 ) ) ;
#167 = APPROVAL_DATE_TIME ( #114, #119 ) ;
#168 = DATE_AND_TIME ( #205, #46 ) ;
#169 = APPROVAL_ROLE ( '' ) ;
#170 = AXIS2_PLACEMENT_3D ( 'NONE', #42, #216, #39 ) ;
#171 = ADVANCED_FACE ( 'NONE', ( #110 ), #183, .T. ) ;
#172 = APPROVAL_PERSON_ORGANIZATION ( #102, #84, #112 ) ;
#173 = DIRECTION ( 'NONE',  ( 4.275831445896959482E-31, 1.000000000000000000, 1.224646799147353207E-16 ) ) ;
#174 = DIRECTION ( 'NONE',  ( -3.491481338843133355E-15, 1.224646799147353207E-16, -1.000000000000000000 ) ) ;
#175 = ORIENTED_EDGE ( 'NONE', *, *, #99, .F. ) ;
#176 = PERSON_AND_ORGANIZATION ( #165, #15 ) ;
#177 = CC_DESIGN_PERSON_AND_ORGANIZATION_ASSIGNMENT ( #34, #82, ( #24 ) ) ;
#178 = CARTESIAN_POINT ( 'NONE',  ( 1.040461438975253740E-13, -3.649447461459112464E-15, 29.80000000000000071 ) ) ;
#179 = APPROVAL_STATUS ( 'not_yet_approved' ) ;
#180 = CYLINDRICAL_SURFACE ( 'NONE', #186, 0.6199999999999989964 ) ;
#181 = EDGE_CURVE ( 'NONE', #118, #118, #204, .T. ) ;
#182 = APPROVAL_PERSON_ORGANIZATION ( #131, #71, #147 ) ;
#183 = CONICAL_SURFACE ( 'NONE', #129, 0.6199999999999987743, 1.029744258676649649 ) ;
#184 = APPROVAL_STATUS ( 'not_yet_approved' ) ;
#185 = VERTEX_POINT ( 'NONE', #27 ) ;
#186 = AXIS2_PLACEMENT_3D ( 'NONE', #197, #38, #22 ) ;
#187 = DIRECTION ( 'NONE',  ( -3.491481338843133355E-15, 1.224646799147353207E-16, -1.000000000000000000 ) ) ;
#188 = ADVANCED_FACE ( 'NONE', ( #29 ), #207, .F. ) ;
#189 = VERTEX_POINT ( 'NONE', #13 ) ;
#190 = DIRECTION ( 'NONE',  ( 0.0000000000000000000, 1.000000000000000000, 0.0000000000000000000 ) ) ;
#191 = PERSON_AND_ORGANIZATION ( #165, #15 ) ;
#192 = FACE_OUTER_BOUND ( 'NONE', #202, .T. ) ;
#193 = DIRECTION ( 'NONE',  ( -3.491481338843133355E-15, 1.224646799147353207E-16, -1.000000000000000000 ) ) ;
#194 = EDGE_LOOP ( 'NONE', ( #17 ) ) ;
#195 = AXIS2_PLACEMENT_3D ( 'NONE', #166, #187, #219 ) ;
#196 = DATE_AND_TIME ( #139, #217 ) ;
#197 = CARTESIAN_POINT ( 'NONE',  ( 0.0000000000000000000, 0.0000000000000000000, 0.0000000000000000000 ) ) ;
#198 = PERSON_AND_ORGANIZATION_ROLE ( 'creator' ) ;
#199 = FACE_OUTER_BOUND ( 'NONE', #44, .T. ) ;
#200 = CARTESIAN_POINT ( 'NONE',  ( 3.491481338843133355E-14, -1.224646799147353256E-15, 10.00000000000000000 ) ) ;
#201 = CC_DESIGN_PERSON_AND_ORGANIZATION_ASSIGNMENT ( #191, #198, ( #18 ) ) ;
#202 = EDGE_LOOP ( 'NONE', ( #126 ) ) ;
#203 = PRODUCT_DEFINITION_SHAPE ( 'NONE', 'NONE',  #116 ) ;
#204 = CIRCLE ( 'NONE', #68, 0.6199999999999993294 ) ;
#205 = CALENDAR_DATE ( 2021, 8, 10 ) ;
#206 = EDGE_CURVE ( 'NONE', #146, #146, #28, .T. ) ;
#207 = PLANE ( 'NONE',  #195 ) ;
#208 = PRODUCT_RELATED_PRODUCT_CATEGORY ( 'detail', '', ( #24 ) ) ;
#209 = PERSON_AND_ORGANIZATION_ROLE ( 'classification_officer' ) ;
#210 = CARTESIAN_POINT ( 'NONE',  ( 1.047444401652940007E-13, 0.5499999999999963807, 30.00000000000000000 ) ) ;
#211 = EDGE_LOOP ( 'NONE', ( #95 ) ) ;
#212 = ORIENTED_EDGE ( 'NONE', *, *, #206, .F. ) ;
#213 = DIRECTION ( 'NONE',  ( 3.106338619979418966E-31, 1.000000000000000000, 8.743565907141182524E-17 ) ) ;
#214 = MECHANICAL_CONTEXT ( 'NONE', #220, 'mechanical' ) ;
#215 = LOCAL_TIME ( 7, 15, 11.00000000000000000, #149 ) ;
#216 = DIRECTION ( 'NONE',  ( 3.491481338843133355E-15, -1.224646799147353207E-16, 1.000000000000000000 ) ) ;
#217 = LOCAL_TIME ( 7, 15, 11.00000000000000000, #41 ) ;
#218 = CARTESIAN_POINT ( 'NONE',  ( 3.570097838786346574E-14, -1.252221755354200462E-15, 10.22516660498395247 ) ) ;
#219 = DIRECTION ( 'NONE',  ( 4.275831445896958607E-31, 1.000000000000000000, 1.224646799147353207E-16 ) ) ;
#220 = APPLICATION_CONTEXT ( 'configuration controlled 3d designs of mechanical parts and assemblies' ) ;
#221 = DIRECTION ( 'NONE',  ( -3.106338619979418966E-31, -1.000000000000000000, -8.743565907141182524E-17 ) ) ;
#222 = APPROVAL_DATE_TIME ( #168, #71 ) ;
#223 = CLOSED_SHELL ( 'NONE', ( #171, #47, #43 ) ) ;
ENDSEC;
END-ISO-10303-21;
