ISO-10303-21;
HEADER;
FILE_DESCRIPTION (( 'STEP AP203' ),
    '1' );
FILE_NAME ('55375.step',
    '2021-10-08T05:15:10',
    ( '' ),
    ( '' ),
    'SwSTEP 2.0',
    'SolidWorks 2019',
    '' );
FILE_SCHEMA (( 'CONFIG_CONTROL_DESIGN' ));
ENDSEC;

DATA;
#1 = FACE_OUTER_BOUND ( 'NONE', #146, .T. ) ;
#2 = VERTEX_POINT ( 'NONE', #84 ) ;
#3 = DIRECTION ( 'NONE',  ( -4.275831445896958607E-31, -1.000000000000000000, -1.224646799147353207E-16 ) ) ;
#4 = APPROVAL_DATE_TIME ( #74, #203 ) ;
#5 = DIRECTION ( 'NONE',  ( -3.491481338843133355E-15, 1.224646799147353207E-16, -1.000000000000000000 ) ) ;
#6 = AXIS2_PLACEMENT_3D ( 'NONE', #137, #83, #67 ) ;
#7 = EDGE_LOOP ( 'NONE', ( #136 ) ) ;
#8 = FACE_OUTER_BOUND ( 'NONE', #48, .T. ) ;
#9 = DIRECTION ( 'NONE',  ( 4.275831445896958607E-31, 1.000000000000000000, 1.224646799147353207E-16 ) ) ;
#10 = CONICAL_SURFACE ( 'NONE', #221, 0.5500000000000000444, 0.7853981633974510546 ) ;
#11 = EDGE_LOOP ( 'NONE', ( #167 ) ) ;
#12 = EDGE_LOOP ( 'NONE', ( #201 ) ) ;
#13 = PERSON_AND_ORGANIZATION ( #165, #173 ) ;
#14 = CALENDAR_DATE ( 2021, 8, 10 ) ;
#15 = CC_DESIGN_SECURITY_CLASSIFICATION ( #148, ( #92 ) ) ;
#16 = VERTEX_POINT ( 'NONE', #153 ) ;
#17 = CARTESIAN_POINT ( 'NONE',  ( 3.491481338843133355E-14, 0.6149999999999987699, 10.00000000000000000 ) ) ;
#18 = PLANE ( 'NONE',  #188 ) ;
#19 = FACE_BOUND ( 'NONE', #12, .T. ) ;
#20 = PERSON_AND_ORGANIZATION ( #165, #173 ) ;
#21 = PRODUCT_DEFINITION ( 'UNKNOWN', '', #92, #37 ) ;
#22 = PLANE ( 'NONE',  #80 ) ;
#23 = EDGE_LOOP ( 'NONE', ( #126 ) ) ;
#24 = CLOSED_SHELL ( 'NONE', ( #124, #171, #86, #120, #91 ) ) ;
#25 = CARTESIAN_POINT ( 'NONE',  ( 3.491481338843133355E-14, -1.224646799147353256E-15, 10.00000000000000000 ) ) ;
#26 = COORDINATED_UNIVERSAL_TIME_OFFSET ( 1, 0, .AHEAD. ) ;
#27 = CLOSED_SHELL ( 'NONE', ( #71, #180, #72 ) ) ;
#28 = CARTESIAN_POINT ( 'NONE',  ( 1.047444401652940007E-13, -3.673940397442059178E-15, 30.00000000000000000 ) ) ;
#29 = ADVANCED_BREP_SHAPE_REPRESENTATION ( '55375', ( #166, #170, #140 ), #211 ) ;
#30 = CC_DESIGN_PERSON_AND_ORGANIZATION_ASSIGNMENT ( #131, #118, ( #92 ) ) ;
#31 = APPROVAL_PERSON_ORGANIZATION ( #182, #203, #116 ) ;
#32 = DIRECTION ( 'NONE',  ( 0.0000000000000000000, 1.000000000000000000, 0.0000000000000000000 ) ) ;
#33 = DATE_AND_TIME ( #193, #58 ) ;
#34 = VERTEX_POINT ( 'NONE', #216 ) ;
#35 = CC_DESIGN_DATE_AND_TIME_ASSIGNMENT ( #129, #187, ( #148 ) ) ;
#36 = APPLICATION_CONTEXT ( 'configuration controlled 3d designs of mechanical parts and assemblies' ) ;
#37 = DESIGN_CONTEXT ( 'detailed design', #176, 'design' ) ;
#38 = APPROVAL_PERSON_ORGANIZATION ( #13, #215, #59 ) ;
#39 = AXIS2_PLACEMENT_3D ( 'NONE', #138, #75, #151 ) ;
#40 = CYLINDRICAL_SURFACE ( 'NONE', #143, 0.7499999999999986677 ) ;
#41 = CC_DESIGN_DATE_AND_TIME_ASSIGNMENT ( #33, #209, ( #21 ) ) ;
#42 = PERSON_AND_ORGANIZATION ( #165, #173 ) ;
#43 = EDGE_CURVE ( 'NONE', #77, #77, #52, .T. ) ;
#44 = EDGE_CURVE ( 'NONE', #16, #16, #55, .T. ) ;
#45 = DIRECTION ( 'NONE',  ( 1.000000000000000000, 0.0000000000000000000, 0.0000000000000000000 ) ) ;
#46 = APPROVAL_STATUS ( 'not_yet_approved' ) ;
#47 = APPROVAL_STATUS ( 'not_yet_approved' ) ;
#48 = EDGE_LOOP ( 'NONE', ( #103 ) ) ;
#49 = DATE_AND_TIME ( #95, #132 ) ;
#50 = ORIENTED_EDGE ( 'NONE', *, *, #43, .T. ) ;
#51 = EDGE_CURVE ( 'NONE', #174, #174, #60, .T. ) ;
#52 = CIRCLE ( 'NONE', #127, 0.6149999999999999911 ) ;
#53 = CARTESIAN_POINT ( 'NONE',  ( 0.0000000000000000000, 0.0000000000000000000, 0.0000000000000000000 ) ) ;
#54 = UNCERTAINTY_MEASURE_WITH_UNIT (LENGTH_MEASURE( 1.000000000000000082E-05 ), #105, 'distance_accuracy_value', 'NONE');
#55 = CIRCLE ( 'NONE', #198, 0.5500000000000000444 ) ;
#56 = APPROVAL ( #46, 'UNSPECIFIED' ) ;
#57 = DIRECTION ( 'NONE',  ( -3.491481338843133355E-15, 1.224646799147353207E-16, -1.000000000000000000 ) ) ;
#58 = LOCAL_TIME ( 7, 15, 10.00000000000000000, #150 ) ;
#59 = APPROVAL_ROLE ( '' ) ;
#60 = CIRCLE ( 'NONE', #217, 0.6149999999999999911 ) ;
#61 = EDGE_LOOP ( 'NONE', ( #189 ) ) ;
#62 = FACE_OUTER_BOUND ( 'NONE', #97, .T. ) ;
#63 = FACE_OUTER_BOUND ( 'NONE', #87, .T. ) ;
#64 = CIRCLE ( 'NONE', #6, 0.6149999999999987699 ) ;
#65 = DIRECTION ( 'NONE',  ( -3.491481338843133355E-15, 1.224646799147353207E-16, -1.000000000000000000 ) ) ;
#66 = MECHANICAL_CONTEXT ( 'NONE', #36, 'mechanical' ) ;
#67 = DIRECTION ( 'NONE',  ( 3.131593405507706676E-31, 1.000000000000000000, 8.814651808825256477E-17 ) ) ;
#68 = CYLINDRICAL_SURFACE ( 'NONE', #110, 0.6149999999999994360 ) ;
#69 = CC_DESIGN_PERSON_AND_ORGANIZATION_ASSIGNMENT ( #144, #162, ( #92 ) ) ;
#70 =( NAMED_UNIT ( * ) PLANE_ANGLE_UNIT ( ) SI_UNIT ( $, .RADIAN. ) );
#71 = ADVANCED_FACE ( 'NONE', ( #210 ), #134, .T. ) ;
#72 = ADVANCED_FACE ( 'NONE', ( #76 ), #18, .T. ) ;
#73 = CIRCLE ( 'NONE', #218, 0.7499999999999998890 ) ;
#74 = DATE_AND_TIME ( #14, #161 ) ;
#75 = DIRECTION ( 'NONE',  ( 3.491481338843133355E-15, -1.224646799147353207E-16, 1.000000000000000000 ) ) ;
#76 = FACE_OUTER_BOUND ( 'NONE', #7, .T. ) ;
#77 = VERTEX_POINT ( 'NONE', #155 ) ;
#78 = FACE_OUTER_BOUND ( 'NONE', #23, .T. ) ;
#79 = ORIENTED_EDGE ( 'NONE', *, *, #130, .F. ) ;
#80 = AXIS2_PLACEMENT_3D ( 'NONE', #196, #65, #107 ) ;
#81 = DIRECTION ( 'NONE',  ( -4.275831445896958607E-31, -1.000000000000000000, -1.224646799147353207E-16 ) ) ;
#82 = VERTEX_POINT ( 'NONE', #202 ) ;
#83 = DIRECTION ( 'NONE',  ( -3.491481338843133355E-15, 1.224646799147353207E-16, -1.000000000000000000 ) ) ;
#84 = CARTESIAN_POINT ( 'NONE',  ( 3.573121550322624710E-14, 0.7499999999999963363, 10.23382685902179823 ) ) ;
#85 = DIRECTION ( 'NONE',  ( -3.491481338843133355E-15, 1.224646799147353207E-16, -1.000000000000000000 ) ) ;
#86 = ADVANCED_FACE ( 'NONE', ( #63, #78 ), #40, .T. ) ;
#87 = EDGE_LOOP ( 'NONE', ( #79 ) ) ;
#88 = EDGE_LOOP ( 'NONE', ( #222 ) ) ;
#89 = PRODUCT ( '55375', '55375', '', ( #66 ) ) ;
#90 = CC_DESIGN_PERSON_AND_ORGANIZATION_ASSIGNMENT ( #20, #200, ( #21 ) ) ;
#91 = ADVANCED_FACE ( 'NONE', ( #135 ), #22, .F. ) ;
#92 = PRODUCT_DEFINITION_FORMATION_WITH_SPECIFIED_SOURCE ( 'ANY', '', #89, .NOT_KNOWN. ) ;
#93 = PRODUCT_DEFINITION_SHAPE ( 'NONE', 'NONE',  #21 ) ;
#94 = CC_DESIGN_PERSON_AND_ORGANIZATION_ASSIGNMENT ( #220, #168, ( #148 ) ) ;
#95 = CALENDAR_DATE ( 2021, 8, 10 ) ;
#96 = AXIS2_PLACEMENT_3D ( 'NONE', #128, #113, #177 ) ;
#97 = EDGE_LOOP ( 'NONE', ( #50 ) ) ;
#98 = COORDINATED_UNIVERSAL_TIME_OFFSET ( 1, 0, .AHEAD. ) ;
#99 = DIRECTION ( 'NONE',  ( -3.491481338843133355E-15, 1.224646799147353207E-16, -1.000000000000000000 ) ) ;
#100 = PERSON_AND_ORGANIZATION ( #165, #173 ) ;
#101 = DIRECTION ( 'NONE',  ( 0.0000000000000000000, 1.000000000000000000, 0.0000000000000000000 ) ) ;
#102 = FACE_OUTER_BOUND ( 'NONE', #11, .T. ) ;
#103 = ORIENTED_EDGE ( 'NONE', *, *, #130, .T. ) ;
#104 = CARTESIAN_POINT ( 'NONE',  ( 1.047444401652940007E-13, -3.673940397442059178E-15, 30.00000000000000000 ) ) ;
#105 =( LENGTH_UNIT ( ) NAMED_UNIT ( * ) SI_UNIT ( .MILLI., .METRE. ) );
#106 = APPROVAL_PERSON_ORGANIZATION ( #100, #56, #186 ) ;
#107 = DIRECTION ( 'NONE',  ( 4.275831445896958607E-31, 1.000000000000000000, 1.224646799147353207E-16 ) ) ;
#108 = APPLICATION_PROTOCOL_DEFINITION ( 'international standard', 'config_control_design', 1994, #176 ) ;
#109 = APPLICATION_PROTOCOL_DEFINITION ( 'international standard', 'config_control_design', 1994, #36 ) ;
#110 = AXIS2_PLACEMENT_3D ( 'NONE', #139, #85, #9 ) ;
#111 = LOCAL_TIME ( 7, 15, 10.00000000000000000, #26 ) ;
#112 = COORDINATED_UNIVERSAL_TIME_OFFSET ( 1, 0, .AHEAD. ) ;
#113 = DIRECTION ( 'NONE',  ( 3.491481338843133355E-15, -1.224646799147353207E-16, 1.000000000000000000 ) ) ;
#114 = EDGE_LOOP ( 'NONE', ( #195 ) ) ;
#115 = CC_DESIGN_PERSON_AND_ORGANIZATION_ASSIGNMENT ( #42, #199, ( #89 ) ) ;
#116 = APPROVAL_ROLE ( '' ) ;
#117 = ORIENTED_EDGE ( 'NONE', *, *, #158, .F. ) ;
#118 = PERSON_AND_ORGANIZATION_ROLE ( 'creator' ) ;
#119 = COORDINATED_UNIVERSAL_TIME_OFFSET ( 1, 0, .AHEAD. ) ;
#120 = ADVANCED_FACE ( 'NONE', ( #102, #19 ), #10, .T. ) ;
#121 = DIRECTION ( 'NONE',  ( -3.491481338843133355E-15, 1.224646799147353207E-16, -1.000000000000000000 ) ) ;
#122 = CC_DESIGN_APPROVAL ( #56, ( #92 ) ) ;
#123 = DIRECTION ( 'NONE',  ( 4.275831445896959482E-31, 1.000000000000000000, 1.224646799147353207E-16 ) ) ;
#124 = ADVANCED_FACE ( 'NONE', ( #213 ), #156, .F. ) ;
#125 = AXIS2_PLACEMENT_3D ( 'NONE', #181, #197, #81 ) ;
#126 = ORIENTED_EDGE ( 'NONE', *, *, #191, .T. ) ;
#127 = AXIS2_PLACEMENT_3D ( 'NONE', #25, #121, #223 ) ;
#128 = CARTESIAN_POINT ( 'NONE',  ( 1.290204587726994630E-15, -4.525428508028705281E-17, 0.3695292807019529557 ) ) ;
#129 = DATE_AND_TIME ( #149, #164 ) ;
#130 = EDGE_CURVE ( 'NONE', #2, #2, #206, .T. ) ;
#131 = PERSON_AND_ORGANIZATION ( #165, #173 ) ;
#132 = LOCAL_TIME ( 7, 15, 10.00000000000000000, #119 ) ;
#133 = DIRECTION ( 'NONE',  ( -3.491481338843133355E-15, 1.224646799147353207E-16, -1.000000000000000000 ) ) ;
#134 = CONICAL_SURFACE ( 'NONE', #96, 0.6149999999999987699, 1.029744258676649649 ) ;
#135 = FACE_OUTER_BOUND ( 'NONE', #175, .T. ) ;
#136 = ORIENTED_EDGE ( 'NONE', *, *, #43, .F. ) ;
#137 = CARTESIAN_POINT ( 'NONE',  ( 1.290204587726994630E-15, -4.525428508028705281E-17, 0.3695292807019529557 ) ) ;
#138 = CARTESIAN_POINT ( 'NONE',  ( 3.573121550322624710E-14, -1.253282330592925703E-15, 10.23382685902179823 ) ) ;
#139 = CARTESIAN_POINT ( 'NONE',  ( 0.0000000000000000000, 0.0000000000000000000, 0.0000000000000000000 ) ) ;
#140 = AXIS2_PLACEMENT_3D ( 'NONE', #142, #205, #45 ) ;
#141 = SECURITY_CLASSIFICATION_LEVEL ( 'unclassified' ) ;
#142 = CARTESIAN_POINT ( 'NONE',  ( 0.0000000000000000000, 0.0000000000000000000, 0.0000000000000000000 ) ) ;
#143 = AXIS2_PLACEMENT_3D ( 'NONE', #53, #133, #123 ) ;
#144 = PERSON_AND_ORGANIZATION ( #165, #173 ) ;
#145 = APPROVAL_STATUS ( 'not_yet_approved' ) ;
#146 = EDGE_LOOP ( 'NONE', ( #117 ) ) ;
#147 = DIRECTION ( 'NONE',  ( 0.0000000000000000000, 1.000000000000000000, 0.0000000000000000000 ) ) ;
#148 = SECURITY_CLASSIFICATION ( '', '', #141 ) ;
#149 = CALENDAR_DATE ( 2021, 8, 10 ) ;
#150 = COORDINATED_UNIVERSAL_TIME_OFFSET ( 1, 0, .AHEAD. ) ;
#151 = DIRECTION ( 'NONE',  ( 0.0000000000000000000, -1.000000000000000000, 0.0000000000000000000 ) ) ;
#152 = PRODUCT_RELATED_PRODUCT_CATEGORY ( 'detail', '', ( #89 ) ) ;
#153 = CARTESIAN_POINT ( 'NONE',  ( 1.047444401652940007E-13, 0.5499999999999963807, 30.00000000000000000 ) ) ;
#154 = CARTESIAN_POINT ( 'NONE',  ( 3.491481338843133355E-14, 4.611761331685194491E-33, 10.00000000000000000 ) ) ;
#155 = CARTESIAN_POINT ( 'NONE',  ( 3.491481338843133355E-14, 0.6149999999999987699, 10.00000000000000000 ) ) ;
#156 = PLANE ( 'NONE',  #125 ) ;
#157 = CARTESIAN_POINT ( 'NONE',  ( 3.573121550322624710E-14, -1.253282330592925703E-15, 10.23382685902179823 ) ) ;
#158 = EDGE_CURVE ( 'NONE', #34, #34, #64, .T. ) ;
#159 = FACE_BOUND ( 'NONE', #114, .T. ) ;
#160 = CARTESIAN_POINT ( 'NONE',  ( 1.040461438975253740E-13, -3.649447461459112464E-15, 29.80000000000000071 ) ) ;
#161 = LOCAL_TIME ( 7, 15, 10.00000000000000000, #98 ) ;
#162 = PERSON_AND_ORGANIZATION_ROLE ( 'design_supplier' ) ;
#163 = CC_DESIGN_APPROVAL ( #215, ( #148 ) ) ;
#164 = LOCAL_TIME ( 7, 15, 10.00000000000000000, #112 ) ;
#165 = PERSON ( 'UNSPECIFIED', 'UNSPECIFIED', 'UNSPECIFIED', ('UNSPECIFIED'), ('UNSPECIFIED'), ('UNSPECIFIED') ) ;
#166 = MANIFOLD_SOLID_BREP ( 'Corps-Déplacer/Copier1[1]', #24 ) ;
#167 = ORIENTED_EDGE ( 'NONE', *, *, #191, .F. ) ;
#168 = PERSON_AND_ORGANIZATION_ROLE ( 'classification_officer' ) ;
#169 = APPROVAL_DATE_TIME ( #49, #56 ) ;
#170 = MANIFOLD_SOLID_BREP ( 'Corps-Déplacer/Copier1[2]', #27 ) ;
#171 = ADVANCED_FACE ( 'NONE', ( #159, #8 ), #184, .T. ) ;
#172 = CALENDAR_DATE ( 2021, 8, 10 ) ;
#173 = ORGANIZATION ( 'UNSPECIFIED', 'UNSPECIFIED', '' ) ;
#174 = VERTEX_POINT ( 'NONE', #17 ) ;
#175 = EDGE_LOOP ( 'NONE', ( #207 ) ) ;
#176 = APPLICATION_CONTEXT ( 'configuration controlled 3d designs of mechanical parts and assemblies' ) ;
#177 = DIRECTION ( 'NONE',  ( -3.131593405507706676E-31, -1.000000000000000000, -8.814651808825256477E-17 ) ) ;
#178 = DIRECTION ( 'NONE',  ( 3.491481338843133355E-15, -1.224646799147353207E-16, 1.000000000000000000 ) ) ;
#179 = CC_DESIGN_APPROVAL ( #203, ( #21 ) ) ;
#180 = ADVANCED_FACE ( 'NONE', ( #1, #62 ), #68, .T. ) ;
#181 = CARTESIAN_POINT ( 'NONE',  ( 3.491481338843133355E-14, 4.611761331685194491E-33, 10.00000000000000000 ) ) ;
#182 = PERSON_AND_ORGANIZATION ( #165, #173 ) ;
#183 = DIRECTION ( 'NONE',  ( -3.491481338843133355E-15, 1.224646799147353207E-16, -1.000000000000000000 ) ) ;
#184 = CONICAL_SURFACE ( 'NONE', #39, 0.7499999999999976685, 0.5235987755982928205 ) ;
#185 =( NAMED_UNIT ( * ) SI_UNIT ( $, .STERADIAN. ) SOLID_ANGLE_UNIT ( ) );
#186 = APPROVAL_ROLE ( '' ) ;
#187 = DATE_TIME_ROLE ( 'classification_date' ) ;
#188 = AXIS2_PLACEMENT_3D ( 'NONE', #154, #178, #3 ) ;
#189 = ORIENTED_EDGE ( 'NONE', *, *, #51, .T. ) ;
#190 = CARTESIAN_POINT ( 'NONE',  ( 3.491481338843133355E-14, -1.224646799147353256E-15, 10.00000000000000000 ) ) ;
#191 = EDGE_CURVE ( 'NONE', #82, #82, #73, .T. ) ;
#192 = DIRECTION ( 'NONE',  ( 0.0000000000000000000, 1.000000000000000000, 0.0000000000000000000 ) ) ;
#193 = CALENDAR_DATE ( 2021, 8, 10 ) ;
#194 = AXIS2_PLACEMENT_3D ( 'NONE', #157, #183, #32 ) ;
#195 = ORIENTED_EDGE ( 'NONE', *, *, #51, .F. ) ;
#196 = CARTESIAN_POINT ( 'NONE',  ( 1.047444401652940007E-13, 4.124339402320052999E-33, 30.00000000000000000 ) ) ;
#197 = DIRECTION ( 'NONE',  ( 3.491481338843133355E-15, -1.224646799147353207E-16, 1.000000000000000000 ) ) ;
#198 = AXIS2_PLACEMENT_3D ( 'NONE', #28, #57, #192 ) ;
#199 = PERSON_AND_ORGANIZATION_ROLE ( 'design_owner' ) ;
#200 = PERSON_AND_ORGANIZATION_ROLE ( 'creator' ) ;
#201 = ORIENTED_EDGE ( 'NONE', *, *, #44, .T. ) ;
#202 = CARTESIAN_POINT ( 'NONE',  ( 1.040461438975253740E-13, 0.7499999999999962252, 29.80000000000000071 ) ) ;
#203 = APPROVAL ( #47, 'UNSPECIFIED' ) ;
#204 = SHAPE_DEFINITION_REPRESENTATION ( #93, #29 ) ;
#205 = DIRECTION ( 'NONE',  ( 0.0000000000000000000, 0.0000000000000000000, 1.000000000000000000 ) ) ;
#206 = CIRCLE ( 'NONE', #194, 0.7499999999999976685 ) ;
#207 = ORIENTED_EDGE ( 'NONE', *, *, #44, .F. ) ;
#208 = DATE_AND_TIME ( #172, #111 ) ;
#209 = DATE_TIME_ROLE ( 'creation_date' ) ;
#210 = FACE_OUTER_BOUND ( 'NONE', #88, .T. ) ;
#211 =( GEOMETRIC_REPRESENTATION_CONTEXT ( 3 ) GLOBAL_UNCERTAINTY_ASSIGNED_CONTEXT ( ( #54 ) ) GLOBAL_UNIT_ASSIGNED_CONTEXT ( ( #105, #70, #185 ) ) REPRESENTATION_CONTEXT ( 'NONE', 'WORKASPACE' ) );
#212 = DIRECTION ( 'NONE',  ( 0.0000000000000000000, 1.000000000000000000, 0.0000000000000000000 ) ) ;
#213 = FACE_OUTER_BOUND ( 'NONE', #61, .T. ) ;
#214 = DIRECTION ( 'NONE',  ( -3.491481338843133355E-15, 1.224646799147353207E-16, -1.000000000000000000 ) ) ;
#215 = APPROVAL ( #145, 'UNSPECIFIED' ) ;
#216 = CARTESIAN_POINT ( 'NONE',  ( 1.290204587726994827E-15, 0.6149999999999987699, 0.3695292807019530112 ) ) ;
#217 = AXIS2_PLACEMENT_3D ( 'NONE', #190, #99, #147 ) ;
#218 = AXIS2_PLACEMENT_3D ( 'NONE', #160, #5, #101 ) ;
#219 = APPROVAL_DATE_TIME ( #208, #215 ) ;
#220 = PERSON_AND_ORGANIZATION ( #165, #173 ) ;
#221 = AXIS2_PLACEMENT_3D ( 'NONE', #104, #214, #212 ) ;
#222 = ORIENTED_EDGE ( 'NONE', *, *, #158, .T. ) ;
#223 = DIRECTION ( 'NONE',  ( 0.0000000000000000000, 1.000000000000000000, 0.0000000000000000000 ) ) ;
ENDSEC;
END-ISO-10303-21;
