ISO-10303-21;
HEADER;
FILE_DESCRIPTION (( 'STEP AP203' ),
    '1' );
FILE_NAME ('55374.step',
    '2021-10-08T05:15:10',
    ( '' ),
    ( '' ),
    'SwSTEP 2.0',
    'SolidWorks 2019',
    '' );
FILE_SCHEMA (( 'CONFIG_CONTROL_DESIGN' ));
ENDSEC;

DATA;
#1 = DIRECTION ( 'NONE',  ( -3.491481338843133355E-15, 1.224646799147353207E-16, -1.000000000000000000 ) ) ;
#2 = CC_DESIGN_PERSON_AND_ORGANIZATION_ASSIGNMENT ( #175, #89, ( #221 ) ) ;
#3 = DIRECTION ( 'NONE',  ( 3.491481338843133355E-15, -1.224646799147353207E-16, 1.000000000000000000 ) ) ;
#4 = CC_DESIGN_APPROVAL ( #78, ( #201 ) ) ;
#5 = CARTESIAN_POINT ( 'NONE',  ( 1.279715119534092150E-15, -4.488636406337414007E-17, 0.3665249776068150722 ) ) ;
#6 = CALENDAR_DATE ( 2021, 8, 10 ) ;
#7 = CARTESIAN_POINT ( 'NONE',  ( 3.491481338843133986E-14, 0.6099999999999994316, 10.00000000000000178 ) ) ;
#8 = PRODUCT ( '55374', '55374', '', ( #77 ) ) ;
#9 =( NAMED_UNIT ( * ) SI_UNIT ( $, .STERADIAN. ) SOLID_ANGLE_UNIT ( ) );
#10 = ORIENTED_EDGE ( 'NONE', *, *, #92, .T. ) ;
#11 = CARTESIAN_POINT ( 'NONE',  ( 0.0000000000000000000, 0.0000000000000000000, 0.0000000000000000000 ) ) ;
#12 = VERTEX_POINT ( 'NONE', #71 ) ;
#13 = PERSON_AND_ORGANIZATION_ROLE ( 'classification_officer' ) ;
#14 = EDGE_CURVE ( 'NONE', #116, #116, #27, .T. ) ;
#15 = CYLINDRICAL_SURFACE ( 'NONE', #149, 0.6099999999999996536 ) ;
#16 = DIRECTION ( 'NONE',  ( 4.275831445896959482E-31, 1.000000000000000000, 1.224646799147353207E-16 ) ) ;
#17 = DIRECTION ( 'NONE',  ( 4.275831445896958607E-31, 1.000000000000000000, 1.224646799147353207E-16 ) ) ;
#18 = EDGE_LOOP ( 'NONE', ( #210 ) ) ;
#19 = FACE_OUTER_BOUND ( 'NONE', #205, .T. ) ;
#20 = ADVANCED_FACE ( 'NONE', ( #51 ), #137, .F. ) ;
#21 = CYLINDRICAL_SURFACE ( 'NONE', #145, 0.7499999999999986677 ) ;
#22 = CALENDAR_DATE ( 2021, 8, 10 ) ;
#23 = EDGE_LOOP ( 'NONE', ( #104 ) ) ;
#24 = PERSON_AND_ORGANIZATION ( #57, #61 ) ;
#25 = APPROVAL_ROLE ( '' ) ;
#26 = VERTEX_POINT ( 'NONE', #213 ) ;
#27 = CIRCLE ( 'NONE', #215, 0.5500000000000000444 ) ;
#28 = APPROVAL_ROLE ( '' ) ;
#29 = PERSON_AND_ORGANIZATION ( #57, #61 ) ;
#30 = CC_DESIGN_SECURITY_CLASSIFICATION ( #201, ( #156 ) ) ;
#31 = CONICAL_SURFACE ( 'NONE', #45, 0.6099999999999987654, 1.029744258676649649 ) ;
#32 = EDGE_LOOP ( 'NONE', ( #208 ) ) ;
#33 = CARTESIAN_POINT ( 'NONE',  ( 3.576145261858901583E-14, -1.254342905831650550E-15, 10.24248711305964044 ) ) ;
#34 = EDGE_LOOP ( 'NONE', ( #91 ) ) ;
#35 = FACE_BOUND ( 'NONE', #146, .T. ) ;
#36 = FACE_OUTER_BOUND ( 'NONE', #186, .T. ) ;
#37 = AXIS2_PLACEMENT_3D ( 'NONE', #203, #1, #122 ) ;
#38 = PERSON_AND_ORGANIZATION_ROLE ( 'creator' ) ;
#39 = SECURITY_CLASSIFICATION_LEVEL ( 'unclassified' ) ;
#40 = APPROVAL_ROLE ( '' ) ;
#41 = CC_DESIGN_APPROVAL ( #80, ( #221 ) ) ;
#42 = EDGE_CURVE ( 'NONE', #26, #26, #134, .T. ) ;
#43 = ADVANCED_FACE ( 'NONE', ( #19, #170 ), #21, .T. ) ;
#44 = APPLICATION_PROTOCOL_DEFINITION ( 'international standard', 'config_control_design', 1994, #178 ) ;
#45 = AXIS2_PLACEMENT_3D ( 'NONE', #5, #151, #100 ) ;
#46 = ADVANCED_FACE ( 'NONE', ( #36 ), #85, .T. ) ;
#47 = CALENDAR_DATE ( 2021, 8, 10 ) ;
#48 = DIRECTION ( 'NONE',  ( 0.0000000000000000000, -1.000000000000000000, 0.0000000000000000000 ) ) ;
#49 = DIRECTION ( 'NONE',  ( -4.275831445896958607E-31, -1.000000000000000000, -1.224646799147353207E-16 ) ) ;
#50 = CONICAL_SURFACE ( 'NONE', #176, 0.5500000000000000444, 0.7853981633974510546 ) ;
#51 = FACE_OUTER_BOUND ( 'NONE', #52, .T. ) ;
#52 = EDGE_LOOP ( 'NONE', ( #140 ) ) ;
#53 = DIRECTION ( 'NONE',  ( 4.275831445896958607E-31, 1.000000000000000000, 1.224646799147353207E-16 ) ) ;
#54 = DIRECTION ( 'NONE',  ( -3.491481338843133355E-15, 1.224646799147353207E-16, -1.000000000000000000 ) ) ;
#55 = DATE_AND_TIME ( #127, #219 ) ;
#56 = AXIS2_PLACEMENT_3D ( 'NONE', #115, #102, #105 ) ;
#57 = PERSON ( 'UNSPECIFIED', 'UNSPECIFIED', 'UNSPECIFIED', ('UNSPECIFIED'), ('UNSPECIFIED'), ('UNSPECIFIED') ) ;
#58 = COORDINATED_UNIVERSAL_TIME_OFFSET ( 1, 0, .AHEAD. ) ;
#59 = DIRECTION ( 'NONE',  ( 0.0000000000000000000, 0.0000000000000000000, 1.000000000000000000 ) ) ;
#60 = APPLICATION_PROTOCOL_DEFINITION ( 'international standard', 'config_control_design', 1994, #129 ) ;
#61 = ORGANIZATION ( 'UNSPECIFIED', 'UNSPECIFIED', '' ) ;
#62 = APPROVAL_DATE_TIME ( #111, #97 ) ;
#63 = PERSON_AND_ORGANIZATION ( #57, #61 ) ;
#64 = AXIS2_PLACEMENT_3D ( 'NONE', #222, #69, #17 ) ;
#65 = CARTESIAN_POINT ( 'NONE',  ( 3.491481338843133986E-14, -1.224646799147353454E-15, 10.00000000000000178 ) ) ;
#66 = DIRECTION ( 'NONE',  ( -3.491481338843133355E-15, 1.224646799147353207E-16, -1.000000000000000000 ) ) ;
#67 = DIRECTION ( 'NONE',  ( -3.491481338843133355E-15, 1.224646799147353207E-16, -1.000000000000000000 ) ) ;
#68 = CIRCLE ( 'NONE', #37, 0.6099999999999987654 ) ;
#69 = DIRECTION ( 'NONE',  ( -3.491481338843133355E-15, 1.224646799147353207E-16, -1.000000000000000000 ) ) ;
#70 = DIRECTION ( 'NONE',  ( -3.491481338843133355E-15, 1.224646799147353207E-16, -1.000000000000000000 ) ) ;
#71 = CARTESIAN_POINT ( 'NONE',  ( 3.576145261858901583E-14, 0.7499999999999963363, 10.24248711305964044 ) ) ;
#72 = EDGE_LOOP ( 'NONE', ( #10 ) ) ;
#73 = DATE_AND_TIME ( #47, #99 ) ;
#74 = CONICAL_SURFACE ( 'NONE', #133, 0.7499999999999976685, 0.5235987755982958181 ) ;
#75 = EDGE_LOOP ( 'NONE', ( #119 ) ) ;
#76 = VERTEX_POINT ( 'NONE', #93 ) ;
#77 = MECHANICAL_CONTEXT ( 'NONE', #129, 'mechanical' ) ;
#78 = APPROVAL ( #216, 'UNSPECIFIED' ) ;
#79 = COORDINATED_UNIVERSAL_TIME_OFFSET ( 1, 0, .AHEAD. ) ;
#80 = APPROVAL ( #148, 'UNSPECIFIED' ) ;
#81 = EDGE_CURVE ( 'NONE', #76, #76, #161, .T. ) ;
#82 = FACE_BOUND ( 'NONE', #168, .T. ) ;
#83 = MANIFOLD_SOLID_BREP ( 'Corps-Déplacer/Copier1[1]', #163 ) ;
#84 = FACE_OUTER_BOUND ( 'NONE', #72, .T. ) ;
#85 = PLANE ( 'NONE',  #179 ) ;
#86 = CARTESIAN_POINT ( 'NONE',  ( 1.047444401652940007E-13, -3.673940397442059178E-15, 30.00000000000000000 ) ) ;
#87 = LOCAL_TIME ( 7, 15, 10.00000000000000000, #58 ) ;
#88 = CARTESIAN_POINT ( 'NONE',  ( 3.491481338843133986E-14, -1.224646799147353454E-15, 10.00000000000000178 ) ) ;
#89 = PERSON_AND_ORGANIZATION_ROLE ( 'creator' ) ;
#90 = UNCERTAINTY_MEASURE_WITH_UNIT (LENGTH_MEASURE( 1.000000000000000082E-05 ), #95, 'distance_accuracy_value', 'NONE');
#91 = ORIENTED_EDGE ( 'NONE', *, *, #120, .T. ) ;
#92 = EDGE_CURVE ( 'NONE', #143, #143, #94, .T. ) ;
#93 = CARTESIAN_POINT ( 'NONE',  ( 3.491481338843133986E-14, 0.6099999999999994316, 10.00000000000000178 ) ) ;
#94 = CIRCLE ( 'NONE', #138, 0.6100000000000006528 ) ;
#95 =( LENGTH_UNIT ( ) NAMED_UNIT ( * ) SI_UNIT ( .MILLI., .METRE. ) );
#96 = PRODUCT_DEFINITION_SHAPE ( 'NONE', 'NONE',  #221 ) ;
#97 = APPROVAL ( #196, 'UNSPECIFIED' ) ;
#98 = AXIS2_PLACEMENT_3D ( 'NONE', #65, #67, #153 ) ;
#99 = LOCAL_TIME ( 7, 15, 10.00000000000000000, #79 ) ;
#100 = DIRECTION ( 'NONE',  ( -3.157262203913507572E-31, -1.000000000000000000, -8.886903053159889787E-17 ) ) ;
#101 = APPROVAL_PERSON_ORGANIZATION ( #144, #78, #25 ) ;
#102 = DIRECTION ( 'NONE',  ( -3.491481338843133355E-15, 1.224646799147353207E-16, -1.000000000000000000 ) ) ;
#103 = CARTESIAN_POINT ( 'NONE',  ( 0.0000000000000000000, 0.0000000000000000000, 0.0000000000000000000 ) ) ;
#104 = ORIENTED_EDGE ( 'NONE', *, *, #202, .F. ) ;
#105 = DIRECTION ( 'NONE',  ( 0.0000000000000000000, 1.000000000000000000, 0.0000000000000000000 ) ) ;
#106 = CLOSED_SHELL ( 'NONE', ( #130, #107, #46 ) ) ;
#107 = ADVANCED_FACE ( 'NONE', ( #182, #108 ), #15, .T. ) ;
#108 = FACE_OUTER_BOUND ( 'NONE', #75, .T. ) ;
#109 = PERSON_AND_ORGANIZATION ( #57, #61 ) ;
#110 = VERTEX_POINT ( 'NONE', #126 ) ;
#111 = DATE_AND_TIME ( #177, #166 ) ;
#112 = APPROVAL_PERSON_ORGANIZATION ( #29, #97, #40 ) ;
#113 = PRODUCT_RELATED_PRODUCT_CATEGORY ( 'detail', '', ( #8 ) ) ;
#114 = CC_DESIGN_DATE_AND_TIME_ASSIGNMENT ( #73, #117, ( #201 ) ) ;
#115 = CARTESIAN_POINT ( 'NONE',  ( 1.040461438975253740E-13, -3.649447461459112464E-15, 29.80000000000000071 ) ) ;
#116 = VERTEX_POINT ( 'NONE', #162 ) ;
#117 = DATE_TIME_ROLE ( 'classification_date' ) ;
#118 = CARTESIAN_POINT ( 'NONE',  ( 3.491481338843133986E-14, -2.078680878889580519E-31, 10.00000000000000178 ) ) ;
#119 = ORIENTED_EDGE ( 'NONE', *, *, #81, .T. ) ;
#120 = EDGE_CURVE ( 'NONE', #12, #12, #180, .T. ) ;
#121 = DIRECTION ( 'NONE',  ( 0.0000000000000000000, 1.000000000000000000, 0.0000000000000000000 ) ) ;
#122 = DIRECTION ( 'NONE',  ( 3.157262203913507572E-31, 1.000000000000000000, 8.886903053159889787E-17 ) ) ;
#123 = AXIS2_PLACEMENT_3D ( 'NONE', #11, #59, #217 ) ;
#124 = DATE_TIME_ROLE ( 'creation_date' ) ;
#125 = COORDINATED_UNIVERSAL_TIME_OFFSET ( 1, 0, .AHEAD. ) ;
#126 = CARTESIAN_POINT ( 'NONE',  ( 1.279715119534092347E-15, 0.6099999999999987654, 0.3665249776068151277 ) ) ;
#127 = CALENDAR_DATE ( 2021, 8, 10 ) ;
#128 = PERSON_AND_ORGANIZATION ( #57, #61 ) ;
#129 = APPLICATION_CONTEXT ( 'configuration controlled 3d designs of mechanical parts and assemblies' ) ;
#130 = ADVANCED_FACE ( 'NONE', ( #184 ), #31, .T. ) ;
#131 = LOCAL_TIME ( 7, 15, 10.00000000000000000, #195 ) ;
#132 = CC_DESIGN_DATE_AND_TIME_ASSIGNMENT ( #55, #124, ( #221 ) ) ;
#133 = AXIS2_PLACEMENT_3D ( 'NONE', #33, #135, #48 ) ;
#134 = CIRCLE ( 'NONE', #56, 0.7499999999999998890 ) ;
#135 = DIRECTION ( 'NONE',  ( 3.491481338843133355E-15, -1.224646799147353207E-16, 1.000000000000000000 ) ) ;
#136 = CARTESIAN_POINT ( 'NONE',  ( 3.491481338843133986E-14, -2.078680878889580519E-31, 10.00000000000000178 ) ) ;
#137 = PLANE ( 'NONE',  #64 ) ;
#138 = AXIS2_PLACEMENT_3D ( 'NONE', #88, #209, #121 ) ;
#139 = DIRECTION ( 'NONE',  ( -4.275831445896958607E-31, -1.000000000000000000, -1.224646799147353207E-16 ) ) ;
#140 = ORIENTED_EDGE ( 'NONE', *, *, #14, .F. ) ;
#141 = DATE_AND_TIME ( #6, #131 ) ;
#142 = FACE_OUTER_BOUND ( 'NONE', #18, .T. ) ;
#143 = VERTEX_POINT ( 'NONE', #7 ) ;
#144 = PERSON_AND_ORGANIZATION ( #57, #61 ) ;
#145 = AXIS2_PLACEMENT_3D ( 'NONE', #167, #171, #16 ) ;
#146 = EDGE_LOOP ( 'NONE', ( #154 ) ) ;
#147 = PERSON_AND_ORGANIZATION ( #57, #61 ) ;
#148 = APPROVAL_STATUS ( 'not_yet_approved' ) ;
#149 = AXIS2_PLACEMENT_3D ( 'NONE', #103, #54, #53 ) ;
#150 = DESIGN_CONTEXT ( 'detailed design', #178, 'design' ) ;
#151 = DIRECTION ( 'NONE',  ( 3.491481338843133355E-15, -1.224646799147353207E-16, 1.000000000000000000 ) ) ;
#152 = PLANE ( 'NONE',  #193 ) ;
#153 = DIRECTION ( 'NONE',  ( 0.0000000000000000000, 1.000000000000000000, 0.0000000000000000000 ) ) ;
#154 = ORIENTED_EDGE ( 'NONE', *, *, #14, .T. ) ;
#155 = DIRECTION ( 'NONE',  ( -3.491481338843133355E-15, 1.224646799147353207E-16, -1.000000000000000000 ) ) ;
#156 = PRODUCT_DEFINITION_FORMATION_WITH_SPECIFIED_SOURCE ( 'ANY', '', #8, .NOT_KNOWN. ) ;
#157 = CC_DESIGN_PERSON_AND_ORGANIZATION_ASSIGNMENT ( #128, #38, ( #156 ) ) ;
#158 = MANIFOLD_SOLID_BREP ( 'Corps-Déplacer/Copier1[2]', #106 ) ;
#159 = PERSON_AND_ORGANIZATION_ROLE ( 'design_supplier' ) ;
#160 = ORIENTED_EDGE ( 'NONE', *, *, #120, .F. ) ;
#161 = CIRCLE ( 'NONE', #98, 0.6100000000000006528 ) ;
#162 = CARTESIAN_POINT ( 'NONE',  ( 1.047444401652940007E-13, 0.5499999999999963807, 30.00000000000000000 ) ) ;
#163 = CLOSED_SHELL ( 'NONE', ( #212, #181, #43, #187, #20 ) ) ;
#164 = CC_DESIGN_PERSON_AND_ORGANIZATION_ASSIGNMENT ( #24, #159, ( #156 ) ) ;
#165 = DIRECTION ( 'NONE',  ( 0.0000000000000000000, 1.000000000000000000, 0.0000000000000000000 ) ) ;
#166 = LOCAL_TIME ( 7, 15, 10.00000000000000000, #194 ) ;
#167 = CARTESIAN_POINT ( 'NONE',  ( 0.0000000000000000000, 0.0000000000000000000, 0.0000000000000000000 ) ) ;
#168 = EDGE_LOOP ( 'NONE', ( #172 ) ) ;
#169 = SHAPE_DEFINITION_REPRESENTATION ( #96, #183 ) ;
#170 = FACE_OUTER_BOUND ( 'NONE', #191, .T. ) ;
#171 = DIRECTION ( 'NONE',  ( -3.491481338843133355E-15, 1.224646799147353207E-16, -1.000000000000000000 ) ) ;
#172 = ORIENTED_EDGE ( 'NONE', *, *, #92, .F. ) ;
#173 = AXIS2_PLACEMENT_3D ( 'NONE', #206, #66, #223 ) ;
#174 = CC_DESIGN_PERSON_AND_ORGANIZATION_ASSIGNMENT ( #63, #13, ( #201 ) ) ;
#175 = PERSON_AND_ORGANIZATION ( #57, #61 ) ;
#176 = AXIS2_PLACEMENT_3D ( 'NONE', #86, #70, #211 ) ;
#177 = CALENDAR_DATE ( 2021, 8, 10 ) ;
#178 = APPLICATION_CONTEXT ( 'configuration controlled 3d designs of mechanical parts and assemblies' ) ;
#179 = AXIS2_PLACEMENT_3D ( 'NONE', #118, #3, #139 ) ;
#180 = CIRCLE ( 'NONE', #173, 0.7499999999999976685 ) ;
#181 = ADVANCED_FACE ( 'NONE', ( #82, #190 ), #74, .T. ) ;
#182 = FACE_OUTER_BOUND ( 'NONE', #23, .T. ) ;
#183 = ADVANCED_BREP_SHAPE_REPRESENTATION ( '55374', ( #83, #158, #123 ), #185 ) ;
#184 = FACE_OUTER_BOUND ( 'NONE', #32, .T. ) ;
#185 =( GEOMETRIC_REPRESENTATION_CONTEXT ( 3 ) GLOBAL_UNCERTAINTY_ASSIGNED_CONTEXT ( ( #90 ) ) GLOBAL_UNIT_ASSIGNED_CONTEXT ( ( #95, #200, #9 ) ) REPRESENTATION_CONTEXT ( 'NONE', 'WORKASPACE' ) );
#186 = EDGE_LOOP ( 'NONE', ( #214 ) ) ;
#187 = ADVANCED_FACE ( 'NONE', ( #142, #35 ), #50, .T. ) ;
#188 = ORIENTED_EDGE ( 'NONE', *, *, #42, .T. ) ;
#189 = APPROVAL_DATE_TIME ( #141, #78 ) ;
#190 = FACE_OUTER_BOUND ( 'NONE', #34, .T. ) ;
#191 = EDGE_LOOP ( 'NONE', ( #188 ) ) ;
#192 = CARTESIAN_POINT ( 'NONE',  ( 1.047444401652940007E-13, -3.673940397442059178E-15, 30.00000000000000000 ) ) ;
#193 = AXIS2_PLACEMENT_3D ( 'NONE', #136, #204, #49 ) ;
#194 = COORDINATED_UNIVERSAL_TIME_OFFSET ( 1, 0, .AHEAD. ) ;
#195 = COORDINATED_UNIVERSAL_TIME_OFFSET ( 1, 0, .AHEAD. ) ;
#196 = APPROVAL_STATUS ( 'not_yet_approved' ) ;
#197 = CC_DESIGN_PERSON_AND_ORGANIZATION_ASSIGNMENT ( #147, #218, ( #8 ) ) ;
#198 = DATE_AND_TIME ( #22, #87 ) ;
#199 = APPROVAL_PERSON_ORGANIZATION ( #109, #80, #28 ) ;
#200 =( NAMED_UNIT ( * ) PLANE_ANGLE_UNIT ( ) SI_UNIT ( $, .RADIAN. ) );
#201 = SECURITY_CLASSIFICATION ( '', '', #39 ) ;
#202 = EDGE_CURVE ( 'NONE', #110, #110, #68, .T. ) ;
#203 = CARTESIAN_POINT ( 'NONE',  ( 1.279715119534092150E-15, -4.488636406337414007E-17, 0.3665249776068150722 ) ) ;
#204 = DIRECTION ( 'NONE',  ( 3.491481338843133355E-15, -1.224646799147353207E-16, 1.000000000000000000 ) ) ;
#205 = EDGE_LOOP ( 'NONE', ( #160 ) ) ;
#206 = CARTESIAN_POINT ( 'NONE',  ( 3.576145261858901583E-14, -1.254342905831650550E-15, 10.24248711305964044 ) ) ;
#207 = CC_DESIGN_APPROVAL ( #97, ( #156 ) ) ;
#208 = ORIENTED_EDGE ( 'NONE', *, *, #202, .T. ) ;
#209 = DIRECTION ( 'NONE',  ( -3.491481338843133355E-15, 1.224646799147353207E-16, -1.000000000000000000 ) ) ;
#210 = ORIENTED_EDGE ( 'NONE', *, *, #42, .F. ) ;
#211 = DIRECTION ( 'NONE',  ( 0.0000000000000000000, 1.000000000000000000, 0.0000000000000000000 ) ) ;
#212 = ADVANCED_FACE ( 'NONE', ( #84 ), #152, .F. ) ;
#213 = CARTESIAN_POINT ( 'NONE',  ( 1.040461438975253740E-13, 0.7499999999999962252, 29.80000000000000071 ) ) ;
#214 = ORIENTED_EDGE ( 'NONE', *, *, #81, .F. ) ;
#215 = AXIS2_PLACEMENT_3D ( 'NONE', #192, #155, #165 ) ;
#216 = APPROVAL_STATUS ( 'not_yet_approved' ) ;
#217 = DIRECTION ( 'NONE',  ( 1.000000000000000000, 0.0000000000000000000, 0.0000000000000000000 ) ) ;
#218 = PERSON_AND_ORGANIZATION_ROLE ( 'design_owner' ) ;
#219 = LOCAL_TIME ( 7, 15, 10.00000000000000000, #125 ) ;
#220 = APPROVAL_DATE_TIME ( #198, #80 ) ;
#221 = PRODUCT_DEFINITION ( 'UNKNOWN', '', #156, #150 ) ;
#222 = CARTESIAN_POINT ( 'NONE',  ( 1.047444401652940007E-13, 4.124339402320052999E-33, 30.00000000000000000 ) ) ;
#223 = DIRECTION ( 'NONE',  ( 0.0000000000000000000, 1.000000000000000000, 0.0000000000000000000 ) ) ;
ENDSEC;
END-ISO-10303-21;
