ISO-10303-21;
HEADER;
FILE_DESCRIPTION (( 'STEP AP203' ),
    '1' );
FILE_NAME ('55373.step',
    '2021-10-08T05:15:09',
    ( '' ),
    ( '' ),
    'SwSTEP 2.0',
    'SolidWorks 2019',
    '' );
FILE_SCHEMA (( 'CONFIG_CONTROL_DESIGN' ));
ENDSEC;

DATA;
#1 = ADVANCED_FACE ( 'NONE', ( #137 ), #10, .F. ) ;
#2 = COORDINATED_UNIVERSAL_TIME_OFFSET ( 1, 0, .AHEAD. ) ;
#3 = CONICAL_SURFACE ( 'NONE', #136, 0.5500000000000000444, 0.7853981633974510546 ) ;
#4 = FACE_OUTER_BOUND ( 'NONE', #100, .T. ) ;
#5 = PERSON_AND_ORGANIZATION_ROLE ( 'creator' ) ;
#6 = APPROVAL_STATUS ( 'not_yet_approved' ) ;
#7 = APPROVAL_STATUS ( 'not_yet_approved' ) ;
#8 = PRODUCT_DEFINITION_FORMATION_WITH_SPECIFIED_SOURCE ( 'ANY', '', #119, .NOT_KNOWN. ) ;
#9 = DIRECTION ( 'NONE',  ( 3.183355279978908794E-31, 1.000000000000000000, 8.960348532938071632E-17 ) ) ;
#10 = PLANE ( 'NONE',  #193 ) ;
#11 = LOCAL_TIME ( 7, 15, 9.000000000000000000, #39 ) ;
#12 = DIRECTION ( 'NONE',  ( -3.491481338843133355E-15, 1.224646799147353207E-16, -1.000000000000000000 ) ) ;
#13 = MANIFOLD_SOLID_BREP ( 'Corps-Déplacer/Copier1[2]', #35 ) ;
#14 = ORIENTED_EDGE ( 'NONE', *, *, #199, .T. ) ;
#15 =( NAMED_UNIT ( * ) SI_UNIT ( $, .STERADIAN. ) SOLID_ANGLE_UNIT ( ) );
#16 = CARTESIAN_POINT ( 'NONE',  ( 1.047444401652940007E-13, 0.5499999999999963807, 30.00000000000000000 ) ) ;
#17 = PRODUCT_DEFINITION_SHAPE ( 'NONE', 'NONE',  #169 ) ;
#18 = CARTESIAN_POINT ( 'NONE',  ( 3.491481338843133986E-14, -2.079055818835246452E-31, 10.00000000000000178 ) ) ;
#19 = PERSON ( 'UNSPECIFIED', 'UNSPECIFIED', 'UNSPECIFIED', ('UNSPECIFIED'), ('UNSPECIFIED'), ('UNSPECIFIED') ) ;
#20 = AXIS2_PLACEMENT_3D ( 'NONE', #108, #32, #106 ) ;
#21 = CYLINDRICAL_SURFACE ( 'NONE', #211, 0.6049999999999994271 ) ;
#22 = PERSON_AND_ORGANIZATION ( #19, #151 ) ;
#23 = DATE_AND_TIME ( #115, #42 ) ;
#24 = CIRCLE ( 'NONE', #55, 0.5500000000000000444 ) ;
#25 = APPROVAL_ROLE ( '' ) ;
#26 = PERSON_AND_ORGANIZATION ( #19, #151 ) ;
#27 = AXIS2_PLACEMENT_3D ( 'NONE', #216, #122, #68 ) ;
#28 = EDGE_LOOP ( 'NONE', ( #63 ) ) ;
#29 =( GEOMETRIC_REPRESENTATION_CONTEXT ( 3 ) GLOBAL_UNCERTAINTY_ASSIGNED_CONTEXT ( ( #190 ) ) GLOBAL_UNIT_ASSIGNED_CONTEXT ( ( #144, #128, #15 ) ) REPRESENTATION_CONTEXT ( 'NONE', 'WORKASPACE' ) );
#30 = VERTEX_POINT ( 'NONE', #191 ) ;
#31 = CARTESIAN_POINT ( 'NONE',  ( 3.579168973395179087E-14, -1.255403481070375398E-15, 10.25114736709748620 ) ) ;
#32 = DIRECTION ( 'NONE',  ( 0.0000000000000000000, 0.0000000000000000000, 1.000000000000000000 ) ) ;
#33 = CC_DESIGN_PERSON_AND_ORGANIZATION_ASSIGNMENT ( #148, #163, ( #8 ) ) ;
#34 = APPLICATION_CONTEXT ( 'configuration controlled 3d designs of mechanical parts and assemblies' ) ;
#35 = CLOSED_SHELL ( 'NONE', ( #61, #139, #194 ) ) ;
#36 = CC_DESIGN_SECURITY_CLASSIFICATION ( #140, ( #8 ) ) ;
#37 = CALENDAR_DATE ( 2021, 8, 10 ) ;
#38 = PRODUCT_RELATED_PRODUCT_CATEGORY ( 'detail', '', ( #119 ) ) ;
#39 = COORDINATED_UNIVERSAL_TIME_OFFSET ( 1, 0, .AHEAD. ) ;
#40 = EDGE_CURVE ( 'NONE', #188, #188, #130, .T. ) ;
#41 = CONICAL_SURFACE ( 'NONE', #27, 0.6049999999999987610, 1.029744258676649649 ) ;
#42 = LOCAL_TIME ( 7, 15, 9.000000000000000000, #116 ) ;
#43 = ORIENTED_EDGE ( 'NONE', *, *, #199, .F. ) ;
#44 = DIRECTION ( 'NONE',  ( 0.0000000000000000000, 1.000000000000000000, 0.0000000000000000000 ) ) ;
#45 = APPROVAL_PERSON_ORGANIZATION ( #22, #171, #25 ) ;
#46 = DIRECTION ( 'NONE',  ( 3.491481338843133355E-15, -1.224646799147353207E-16, 1.000000000000000000 ) ) ;
#47 = APPROVAL ( #164, 'UNSPECIFIED' ) ;
#48 = CARTESIAN_POINT ( 'NONE',  ( 3.579168973395179087E-14, 0.7499999999999963363, 10.25114736709748620 ) ) ;
#49 = AXIS2_PLACEMENT_3D ( 'NONE', #143, #174, #159 ) ;
#50 = DIRECTION ( 'NONE',  ( 0.0000000000000000000, 1.000000000000000000, 0.0000000000000000000 ) ) ;
#51 = DIRECTION ( 'NONE',  ( 0.0000000000000000000, 1.000000000000000000, 0.0000000000000000000 ) ) ;
#52 = DIRECTION ( 'NONE',  ( -3.491481338843133355E-15, 1.224646799147353207E-16, -1.000000000000000000 ) ) ;
#53 = PERSON_AND_ORGANIZATION_ROLE ( 'design_owner' ) ;
#54 = CALENDAR_DATE ( 2021, 8, 10 ) ;
#55 = AXIS2_PLACEMENT_3D ( 'NONE', #175, #12, #44 ) ;
#56 = DESIGN_CONTEXT ( 'detailed design', #195, 'design' ) ;
#57 = EDGE_LOOP ( 'NONE', ( #79 ) ) ;
#58 = PERSON_AND_ORGANIZATION ( #19, #151 ) ;
#59 = EDGE_LOOP ( 'NONE', ( #60 ) ) ;
#60 = ORIENTED_EDGE ( 'NONE', *, *, #82, .T. ) ;
#61 = ADVANCED_FACE ( 'NONE', ( #185 ), #41, .T. ) ;
#62 = ORIENTED_EDGE ( 'NONE', *, *, #120, .T. ) ;
#63 = ORIENTED_EDGE ( 'NONE', *, *, #40, .F. ) ;
#64 = FACE_OUTER_BOUND ( 'NONE', #135, .T. ) ;
#65 = CC_DESIGN_DATE_AND_TIME_ASSIGNMENT ( #198, #77, ( #140 ) ) ;
#66 = CARTESIAN_POINT ( 'NONE',  ( 3.579168973395179087E-14, -1.255403481070375398E-15, 10.25114736709748620 ) ) ;
#67 = DIRECTION ( 'NONE',  ( -3.491481338843133355E-15, 1.224646799147353207E-16, -1.000000000000000000 ) ) ;
#68 = DIRECTION ( 'NONE',  ( -3.183355279978908794E-31, -1.000000000000000000, -8.960348532938071632E-17 ) ) ;
#69 = CARTESIAN_POINT ( 'NONE',  ( 1.047444401652940007E-13, -3.673940397442059178E-15, 30.00000000000000000 ) ) ;
#70 = FACE_OUTER_BOUND ( 'NONE', #166, .T. ) ;
#71 = PERSON_AND_ORGANIZATION ( #19, #151 ) ;
#72 = APPROVAL_DATE_TIME ( #133, #47 ) ;
#73 = PERSON_AND_ORGANIZATION ( #19, #151 ) ;
#74 = CC_DESIGN_APPROVAL ( #109, ( #169 ) ) ;
#75 = ADVANCED_FACE ( 'NONE', ( #126, #4 ), #192, .T. ) ;
#76 = APPROVAL_ROLE ( '' ) ;
#77 = DATE_TIME_ROLE ( 'classification_date' ) ;
#78 = CC_DESIGN_PERSON_AND_ORGANIZATION_ASSIGNMENT ( #112, #5, ( #8 ) ) ;
#79 = ORIENTED_EDGE ( 'NONE', *, *, #40, .T. ) ;
#80 = DIRECTION ( 'NONE',  ( -3.491481338843133355E-15, 1.224646799147353207E-16, -1.000000000000000000 ) ) ;
#81 = AXIS2_PLACEMENT_3D ( 'NONE', #31, #86, #105 ) ;
#82 = EDGE_CURVE ( 'NONE', #209, #209, #24, .T. ) ;
#83 = CARTESIAN_POINT ( 'NONE',  ( 3.491481338843133986E-14, -2.079055818835246452E-31, 10.00000000000000178 ) ) ;
#84 = ADVANCED_FACE ( 'NONE', ( #92 ), #212, .F. ) ;
#85 = AXIS2_PLACEMENT_3D ( 'NONE', #221, #214, #114 ) ;
#86 = DIRECTION ( 'NONE',  ( 3.491481338843133355E-15, -1.224646799147353207E-16, 1.000000000000000000 ) ) ;
#87 = CARTESIAN_POINT ( 'NONE',  ( 0.0000000000000000000, 0.0000000000000000000, 0.0000000000000000000 ) ) ;
#88 = MECHANICAL_CONTEXT ( 'NONE', #34, 'mechanical' ) ;
#89 = MANIFOLD_SOLID_BREP ( 'Corps-Déplacer/Copier1[1]', #186 ) ;
#90 = ORIENTED_EDGE ( 'NONE', *, *, #96, .T. ) ;
#91 = ORIENTED_EDGE ( 'NONE', *, *, #96, .F. ) ;
#92 = FACE_OUTER_BOUND ( 'NONE', #98, .T. ) ;
#93 = FACE_OUTER_BOUND ( 'NONE', #118, .T. ) ;
#94 = EDGE_LOOP ( 'NONE', ( #90 ) ) ;
#95 = SHAPE_DEFINITION_REPRESENTATION ( #17, #149 ) ;
#96 = EDGE_CURVE ( 'NONE', #220, #220, #103, .T. ) ;
#97 = DATE_AND_TIME ( #111, #107 ) ;
#98 = EDGE_LOOP ( 'NONE', ( #99 ) ) ;
#99 = ORIENTED_EDGE ( 'NONE', *, *, #82, .F. ) ;
#100 = EDGE_LOOP ( 'NONE', ( #14 ) ) ;
#101 = CIRCLE ( 'NONE', #154, 0.7499999999999998890 ) ;
#102 = CARTESIAN_POINT ( 'NONE',  ( 3.491481338843133986E-14, 0.6049999999999987610, 10.00000000000000178 ) ) ;
#103 = CIRCLE ( 'NONE', #170, 0.6049999999999999822 ) ;
#104 = PLANE ( 'NONE',  #218 ) ;
#105 = DIRECTION ( 'NONE',  ( 0.0000000000000000000, -1.000000000000000000, 0.0000000000000000000 ) ) ;
#106 = DIRECTION ( 'NONE',  ( 1.000000000000000000, 0.0000000000000000000, 0.0000000000000000000 ) ) ;
#107 = LOCAL_TIME ( 7, 15, 9.000000000000000000, #184 ) ;
#108 = CARTESIAN_POINT ( 'NONE',  ( 0.0000000000000000000, 0.0000000000000000000, 0.0000000000000000000 ) ) ;
#109 = APPROVAL ( #6, 'UNSPECIFIED' ) ;
#110 = ORIENTED_EDGE ( 'NONE', *, *, #219, .T. ) ;
#111 = CALENDAR_DATE ( 2021, 8, 10 ) ;
#112 = PERSON_AND_ORGANIZATION ( #19, #151 ) ;
#113 = APPROVAL_PERSON_ORGANIZATION ( #58, #109, #76 ) ;
#114 = DIRECTION ( 'NONE',  ( 4.275831445896958607E-31, 1.000000000000000000, 1.224646799147353207E-16 ) ) ;
#115 = CALENDAR_DATE ( 2021, 8, 10 ) ;
#116 = COORDINATED_UNIVERSAL_TIME_OFFSET ( 1, 0, .AHEAD. ) ;
#117 = DIRECTION ( 'NONE',  ( 4.275831445896959482E-31, 1.000000000000000000, 1.224646799147353207E-16 ) ) ;
#118 = EDGE_LOOP ( 'NONE', ( #110 ) ) ;
#119 = PRODUCT ( '55373', '55373', '', ( #88 ) ) ;
#120 = EDGE_CURVE ( 'NONE', #129, #129, #179, .T. ) ;
#121 = CIRCLE ( 'NONE', #49, 0.6049999999999999822 ) ;
#122 = DIRECTION ( 'NONE',  ( 3.491481338843133355E-15, -1.224646799147353207E-16, 1.000000000000000000 ) ) ;
#123 = DIRECTION ( 'NONE',  ( 3.491481338843133355E-15, -1.224646799147353207E-16, 1.000000000000000000 ) ) ;
#124 = DIRECTION ( 'NONE',  ( -3.491481338843133355E-15, 1.224646799147353207E-16, -1.000000000000000000 ) ) ;
#125 = FACE_BOUND ( 'NONE', #138, .T. ) ;
#126 = FACE_OUTER_BOUND ( 'NONE', #28, .T. ) ;
#127 = VERTEX_POINT ( 'NONE', #102 ) ;
#128 =( NAMED_UNIT ( * ) PLANE_ANGLE_UNIT ( ) SI_UNIT ( $, .RADIAN. ) );
#129 = VERTEX_POINT ( 'NONE', #176 ) ;
#130 = CIRCLE ( 'NONE', #202, 0.7499999999999976685 ) ;
#131 = FACE_OUTER_BOUND ( 'NONE', #162, .T. ) ;
#132 = APPROVAL_DATE_TIME ( #23, #109 ) ;
#133 = DATE_AND_TIME ( #37, #157 ) ;
#134 = EDGE_LOOP ( 'NONE', ( #62 ) ) ;
#135 = EDGE_LOOP ( 'NONE', ( #43 ) ) ;
#136 = AXIS2_PLACEMENT_3D ( 'NONE', #69, #67, #50 ) ;
#137 = FACE_OUTER_BOUND ( 'NONE', #94, .T. ) ;
#138 = EDGE_LOOP ( 'NONE', ( #91 ) ) ;
#139 = ADVANCED_FACE ( 'NONE', ( #131, #93 ), #21, .T. ) ;
#140 = SECURITY_CLASSIFICATION ( '', '', #181 ) ;
#141 = FACE_OUTER_BOUND ( 'NONE', #57, .T. ) ;
#142 = ADVANCED_FACE ( 'NONE', ( #64, #222 ), #3, .T. ) ;
#143 = CARTESIAN_POINT ( 'NONE',  ( 3.491481338843133986E-14, -1.224646799147353454E-15, 10.00000000000000178 ) ) ;
#144 =( LENGTH_UNIT ( ) NAMED_UNIT ( * ) SI_UNIT ( .MILLI., .METRE. ) );
#145 = DIRECTION ( 'NONE',  ( 4.275831445896958607E-31, 1.000000000000000000, 1.224646799147352961E-16 ) ) ;
#146 = CALENDAR_DATE ( 2021, 8, 10 ) ;
#147 = PERSON_AND_ORGANIZATION_ROLE ( 'creator' ) ;
#148 = PERSON_AND_ORGANIZATION ( #19, #151 ) ;
#149 = ADVANCED_BREP_SHAPE_REPRESENTATION ( '55373', ( #89, #13, #20 ), #29 ) ;
#150 = ORIENTED_EDGE ( 'NONE', *, *, #219, .F. ) ;
#151 = ORGANIZATION ( 'UNSPECIFIED', 'UNSPECIFIED', '' ) ;
#152 = CARTESIAN_POINT ( 'NONE',  ( 0.0000000000000000000, 0.0000000000000000000, 0.0000000000000000000 ) ) ;
#153 = DIRECTION ( 'NONE',  ( 0.0000000000000000000, 1.000000000000000000, 0.0000000000000000000 ) ) ;
#154 = AXIS2_PLACEMENT_3D ( 'NONE', #189, #208, #51 ) ;
#155 = DIRECTION ( 'NONE',  ( -4.275831445896958607E-31, -1.000000000000000000, -1.224646799147353207E-16 ) ) ;
#156 = AXIS2_PLACEMENT_3D ( 'NONE', #152, #52, #117 ) ;
#157 = LOCAL_TIME ( 7, 15, 9.000000000000000000, #2 ) ;
#158 = APPLICATION_PROTOCOL_DEFINITION ( 'international standard', 'config_control_design', 1994, #34 ) ;
#159 = DIRECTION ( 'NONE',  ( 0.0000000000000000000, 1.000000000000000000, 0.0000000000000000000 ) ) ;
#160 = DIRECTION ( 'NONE',  ( 0.0000000000000000000, 1.000000000000000000, 0.0000000000000000000 ) ) ;
#161 = CC_DESIGN_APPROVAL ( #171, ( #140 ) ) ;
#162 = EDGE_LOOP ( 'NONE', ( #180 ) ) ;
#163 = PERSON_AND_ORGANIZATION_ROLE ( 'design_supplier' ) ;
#164 = APPROVAL_STATUS ( 'not_yet_approved' ) ;
#165 = AXIS2_PLACEMENT_3D ( 'NONE', #201, #80, #9 ) ;
#166 = EDGE_LOOP ( 'NONE', ( #150 ) ) ;
#167 = CARTESIAN_POINT ( 'NONE',  ( 3.491481338843133986E-14, -1.224646799147353454E-15, 10.00000000000000178 ) ) ;
#168 = COORDINATED_UNIVERSAL_TIME_OFFSET ( 1, 0, .AHEAD. ) ;
#169 = PRODUCT_DEFINITION ( 'UNKNOWN', '', #8, #56 ) ;
#170 = AXIS2_PLACEMENT_3D ( 'NONE', #167, #183, #153 ) ;
#171 = APPROVAL ( #7, 'UNSPECIFIED' ) ;
#172 = ADVANCED_FACE ( 'NONE', ( #125, #141 ), #197, .T. ) ;
#173 = DIRECTION ( 'NONE',  ( -4.275831445896958607E-31, -1.000000000000000000, -1.224646799147353207E-16 ) ) ;
#174 = DIRECTION ( 'NONE',  ( -3.491481338843133355E-15, 1.224646799147353207E-16, -1.000000000000000000 ) ) ;
#175 = CARTESIAN_POINT ( 'NONE',  ( 1.047444401652940007E-13, -3.673940397442059178E-15, 30.00000000000000000 ) ) ;
#176 = CARTESIAN_POINT ( 'NONE',  ( 1.269225651341189867E-15, 0.6049999999999987610, 0.3635206745116772997 ) ) ;
#177 = APPLICATION_PROTOCOL_DEFINITION ( 'international standard', 'config_control_design', 1994, #195 ) ;
#178 = DATE_AND_TIME ( #54, #11 ) ;
#179 = CIRCLE ( 'NONE', #165, 0.6049999999999987610 ) ;
#180 = ORIENTED_EDGE ( 'NONE', *, *, #120, .F. ) ;
#181 = SECURITY_CLASSIFICATION_LEVEL ( 'unclassified' ) ;
#182 = APPROVAL_ROLE ( '' ) ;
#183 = DIRECTION ( 'NONE',  ( -3.491481338843133355E-15, 1.224646799147353207E-16, -1.000000000000000000 ) ) ;
#184 = COORDINATED_UNIVERSAL_TIME_OFFSET ( 1, 0, .AHEAD. ) ;
#185 = FACE_OUTER_BOUND ( 'NONE', #134, .T. ) ;
#186 = CLOSED_SHELL ( 'NONE', ( #1, #172, #75, #142, #84 ) ) ;
#187 = CC_DESIGN_PERSON_AND_ORGANIZATION_ASSIGNMENT ( #73, #210, ( #140 ) ) ;
#188 = VERTEX_POINT ( 'NONE', #48 ) ;
#189 = CARTESIAN_POINT ( 'NONE',  ( 1.040461438975253740E-13, -3.649447461459112464E-15, 29.80000000000000071 ) ) ;
#190 = UNCERTAINTY_MEASURE_WITH_UNIT (LENGTH_MEASURE( 1.000000000000000082E-05 ), #144, 'distance_accuracy_value', 'NONE');
#191 = CARTESIAN_POINT ( 'NONE',  ( 1.040461438975253740E-13, 0.7499999999999962252, 29.80000000000000071 ) ) ;
#192 = CYLINDRICAL_SURFACE ( 'NONE', #156, 0.7499999999999986677 ) ;
#193 = AXIS2_PLACEMENT_3D ( 'NONE', #83, #123, #173 ) ;
#194 = ADVANCED_FACE ( 'NONE', ( #70 ), #104, .T. ) ;
#195 = APPLICATION_CONTEXT ( 'configuration controlled 3d designs of mechanical parts and assemblies' ) ;
#196 = PERSON_AND_ORGANIZATION ( #19, #151 ) ;
#197 = CONICAL_SURFACE ( 'NONE', #81, 0.7499999999999976685, 0.5235987755982964842 ) ;
#198 = DATE_AND_TIME ( #146, #215 ) ;
#199 = EDGE_CURVE ( 'NONE', #30, #30, #101, .T. ) ;
#200 = APPROVAL_DATE_TIME ( #178, #171 ) ;
#201 = CARTESIAN_POINT ( 'NONE',  ( 1.269225651341189669E-15, -4.451844304646123349E-17, 0.3635206745116772442 ) ) ;
#202 = AXIS2_PLACEMENT_3D ( 'NONE', #66, #205, #160 ) ;
#203 = APPROVAL_PERSON_ORGANIZATION ( #196, #47, #182 ) ;
#204 = CC_DESIGN_PERSON_AND_ORGANIZATION_ASSIGNMENT ( #71, #53, ( #119 ) ) ;
#205 = DIRECTION ( 'NONE',  ( -3.491481338843133355E-15, 1.224646799147353207E-16, -1.000000000000000000 ) ) ;
#206 = CC_DESIGN_APPROVAL ( #47, ( #8 ) ) ;
#207 = CC_DESIGN_DATE_AND_TIME_ASSIGNMENT ( #97, #213, ( #169 ) ) ;
#208 = DIRECTION ( 'NONE',  ( -3.491481338843133355E-15, 1.224646799147353207E-16, -1.000000000000000000 ) ) ;
#209 = VERTEX_POINT ( 'NONE', #16 ) ;
#210 = PERSON_AND_ORGANIZATION_ROLE ( 'classification_officer' ) ;
#211 = AXIS2_PLACEMENT_3D ( 'NONE', #87, #124, #145 ) ;
#212 = PLANE ( 'NONE',  #85 ) ;
#213 = DATE_TIME_ROLE ( 'creation_date' ) ;
#214 = DIRECTION ( 'NONE',  ( -3.491481338843133355E-15, 1.224646799147353207E-16, -1.000000000000000000 ) ) ;
#215 = LOCAL_TIME ( 7, 15, 9.000000000000000000, #168 ) ;
#216 = CARTESIAN_POINT ( 'NONE',  ( 1.269225651341189669E-15, -4.451844304646123349E-17, 0.3635206745116772442 ) ) ;
#217 = CC_DESIGN_PERSON_AND_ORGANIZATION_ASSIGNMENT ( #26, #147, ( #169 ) ) ;
#218 = AXIS2_PLACEMENT_3D ( 'NONE', #18, #46, #155 ) ;
#219 = EDGE_CURVE ( 'NONE', #127, #127, #121, .T. ) ;
#220 = VERTEX_POINT ( 'NONE', #223 ) ;
#221 = CARTESIAN_POINT ( 'NONE',  ( 1.047444401652940007E-13, 4.124339402320052999E-33, 30.00000000000000000 ) ) ;
#222 = FACE_BOUND ( 'NONE', #59, .T. ) ;
#223 = CARTESIAN_POINT ( 'NONE',  ( 3.491481338843133986E-14, 0.6049999999999987610, 10.00000000000000178 ) ) ;
ENDSEC;
END-ISO-10303-21;
