ISO-10303-21;
HEADER;
FILE_DESCRIPTION (( 'STEP AP203' ),
    '1' );
FILE_NAME ('55372.step',
    '2021-10-08T05:15:08',
    ( '' ),
    ( '' ),
    'SwSTEP 2.0',
    'SolidWorks 2019',
    '' );
FILE_SCHEMA (( 'CONFIG_CONTROL_DESIGN' ));
ENDSEC;

DATA;
#1 = PERSON_AND_ORGANIZATION ( #14, #22 ) ;
#2 = DIRECTION ( 'NONE',  ( 0.0000000000000000000, 1.000000000000000000, 0.0000000000000000000 ) ) ;
#3 = EDGE_CURVE ( 'NONE', #198, #198, #29, .T. ) ;
#4 = AXIS2_PLACEMENT_3D ( 'NONE', #21, #96, #167 ) ;
#5 = DIRECTION ( 'NONE',  ( -3.491481338843133355E-15, 1.224646799147353207E-16, -1.000000000000000000 ) ) ;
#6 = DIRECTION ( 'NONE',  ( 3.491481338843133355E-15, -1.224646799147353207E-16, 1.000000000000000000 ) ) ;
#7 = DIRECTION ( 'NONE',  ( -3.491481338843133355E-15, 1.224646799147353207E-16, -1.000000000000000000 ) ) ;
#8 = SHAPE_DEFINITION_REPRESENTATION ( #112, #78 ) ;
#9 = APPLICATION_PROTOCOL_DEFINITION ( 'international standard', 'config_control_design', 1994, #160 ) ;
#10 = APPROVAL_STATUS ( 'not_yet_approved' ) ;
#11 = AXIS2_PLACEMENT_3D ( 'NONE', #75, #7, #53 ) ;
#12 = PRODUCT ( '55372', '55372', '', ( #97 ) ) ;
#13 = CARTESIAN_POINT ( 'NONE',  ( 3.582192684931457223E-14, -1.256464056309100442E-15, 10.25980762113533196 ) ) ;
#14 = PERSON ( 'UNSPECIFIED', 'UNSPECIFIED', 'UNSPECIFIED', ('UNSPECIFIED'), ('UNSPECIFIED'), ('UNSPECIFIED') ) ;
#15 = DIRECTION ( 'NONE',  ( 3.491481338843133355E-15, -1.224646799147353207E-16, 1.000000000000000000 ) ) ;
#16 = ORIENTED_EDGE ( 'NONE', *, *, #18, .F. ) ;
#17 = AXIS2_PLACEMENT_3D ( 'NONE', #113, #115, #139 ) ;
#18 = EDGE_CURVE ( 'NONE', #27, #27, #218, .T. ) ;
#19 = APPROVAL_PERSON_ORGANIZATION ( #181, #24, #164 ) ;
#20 = APPROVAL ( #10, 'UNSPECIFIED' ) ;
#21 = CARTESIAN_POINT ( 'NONE',  ( 3.491481338843133355E-14, 4.499279347985556402E-33, 10.00000000000000000 ) ) ;
#22 = ORGANIZATION ( 'UNSPECIFIED', 'UNSPECIFIED', '' ) ;
#23 = ADVANCED_FACE ( 'NONE', ( #69, #91 ), #155, .T. ) ;
#24 = APPROVAL ( #108, 'UNSPECIFIED' ) ;
#25 = ADVANCED_FACE ( 'NONE', ( #193 ), #47, .T. ) ;
#26 = CARTESIAN_POINT ( 'NONE',  ( 1.047444401652940007E-13, -3.673940397442059178E-15, 30.00000000000000000 ) ) ;
#27 = VERTEX_POINT ( 'NONE', #40 ) ;
#28 = UNCERTAINTY_MEASURE_WITH_UNIT (LENGTH_MEASURE( 1.000000000000000082E-05 ), #114, 'distance_accuracy_value', 'NONE');
#29 = CIRCLE ( 'NONE', #170, 0.7499999999999976685 ) ;
#30 = CC_DESIGN_APPROVAL ( #20, ( #154 ) ) ;
#31 = CYLINDRICAL_SURFACE ( 'NONE', #222, 0.5999999999999994227 ) ;
#32 = CARTESIAN_POINT ( 'NONE',  ( 3.491481338843133355E-14, -1.224646799147353256E-15, 10.00000000000000000 ) ) ;
#33 = DATE_AND_TIME ( #221, #215 ) ;
#34 = DIRECTION ( 'NONE',  ( -3.209883240645399803E-31, -1.000000000000000000, -9.035018104045889183E-17 ) ) ;
#35 = VERTEX_POINT ( 'NONE', #147 ) ;
#36 = DIRECTION ( 'NONE',  ( 0.0000000000000000000, 1.000000000000000000, 0.0000000000000000000 ) ) ;
#37 = CIRCLE ( 'NONE', #71, 0.6000000000000001998 ) ;
#38 = CARTESIAN_POINT ( 'NONE',  ( 1.047444401652940007E-13, 4.124339402320052999E-33, 30.00000000000000000 ) ) ;
#39 = VERTEX_POINT ( 'NONE', #120 ) ;
#40 = CARTESIAN_POINT ( 'NONE',  ( 1.040461438975253740E-13, 0.7499999999999962252, 29.80000000000000071 ) ) ;
#41 = DIRECTION ( 'NONE',  ( -3.491481338843133355E-15, 1.224646799147353207E-16, -1.000000000000000000 ) ) ;
#42 = ORIENTED_EDGE ( 'NONE', *, *, #99, .F. ) ;
#43 = PERSON_AND_ORGANIZATION ( #14, #22 ) ;
#44 = DIRECTION ( 'NONE',  ( -4.275831445896958607E-31, -1.000000000000000000, -1.224646799147353207E-16 ) ) ;
#45 = AXIS2_PLACEMENT_3D ( 'NONE', #216, #152, #137 ) ;
#46 = LOCAL_TIME ( 7, 15, 8.000000000000000000, #202 ) ;
#47 = PLANE ( 'NONE',  #148 ) ;
#48 = EDGE_LOOP ( 'NONE', ( #76 ) ) ;
#49 = CC_DESIGN_PERSON_AND_ORGANIZATION_ASSIGNMENT ( #124, #214, ( #197 ) ) ;
#50 = COORDINATED_UNIVERSAL_TIME_OFFSET ( 1, 0, .AHEAD. ) ;
#51 = AXIS2_PLACEMENT_3D ( 'NONE', #32, #5, #2 ) ;
#52 = APPROVAL_PERSON_ORGANIZATION ( #1, #93, #146 ) ;
#53 = DIRECTION ( 'NONE',  ( 0.0000000000000000000, 1.000000000000000000, 0.0000000000000000000 ) ) ;
#54 = PERSON_AND_ORGANIZATION_ROLE ( 'creator' ) ;
#55 = EDGE_LOOP ( 'NONE', ( #125 ) ) ;
#56 = APPROVAL_ROLE ( '' ) ;
#57 = FACE_OUTER_BOUND ( 'NONE', #208, .T. ) ;
#58 = EDGE_LOOP ( 'NONE', ( #175 ) ) ;
#59 = LOCAL_TIME ( 7, 15, 8.000000000000000000, #133 ) ;
#60 = DIRECTION ( 'NONE',  ( -3.491481338843133355E-15, 1.224646799147353207E-16, -1.000000000000000000 ) ) ;
#61 = VERTEX_POINT ( 'NONE', #138 ) ;
#62 = DATE_AND_TIME ( #118, #46 ) ;
#63 = DATE_AND_TIME ( #131, #80 ) ;
#64 = AXIS2_PLACEMENT_3D ( 'NONE', #163, #6, #34 ) ;
#65 = DIRECTION ( 'NONE',  ( -3.491481338843133355E-15, 1.224646799147353207E-16, -1.000000000000000000 ) ) ;
#66 = ADVANCED_FACE ( 'NONE', ( #161 ), #183, .T. ) ;
#67 = PRODUCT_RELATED_PRODUCT_CATEGORY ( 'detail', '', ( #12 ) ) ;
#68 = ORIENTED_EDGE ( 'NONE', *, *, #3, .T. ) ;
#69 = FACE_BOUND ( 'NONE', #58, .T. ) ;
#70 = APPLICATION_CONTEXT ( 'configuration controlled 3d designs of mechanical parts and assemblies' ) ;
#71 = AXIS2_PLACEMENT_3D ( 'NONE', #176, #60, #119 ) ;
#72 = EDGE_LOOP ( 'NONE', ( #127 ) ) ;
#73 = FACE_OUTER_BOUND ( 'NONE', #92, .T. ) ;
#74 = PERSON_AND_ORGANIZATION ( #14, #22 ) ;
#75 = CARTESIAN_POINT ( 'NONE',  ( 1.047444401652940007E-13, -3.673940397442059178E-15, 30.00000000000000000 ) ) ;
#76 = ORIENTED_EDGE ( 'NONE', *, *, #99, .T. ) ;
#77 = APPROVAL_DATE_TIME ( #105, #24 ) ;
#78 = ADVANCED_BREP_SHAPE_REPRESENTATION ( '55372', ( #81, #162, #195 ), #207 ) ;
#79 = PERSON_AND_ORGANIZATION ( #14, #22 ) ;
#80 = LOCAL_TIME ( 7, 15, 8.000000000000000000, #50 ) ;
#81 = MANIFOLD_SOLID_BREP ( 'Corps-Déplacer/Copier1[1]', #86 ) ;
#82 = FACE_OUTER_BOUND ( 'NONE', #72, .T. ) ;
#83 = AXIS2_PLACEMENT_3D ( 'NONE', #38, #41, #117 ) ;
#84 = EDGE_LOOP ( 'NONE', ( #42 ) ) ;
#85 = DIRECTION ( 'NONE',  ( 0.0000000000000000000, 0.0000000000000000000, 1.000000000000000000 ) ) ;
#86 = CLOSED_SHELL ( 'NONE', ( #143, #23, #223, #130, #151 ) ) ;
#87 = DATE_AND_TIME ( #136, #59 ) ;
#88 = COORDINATED_UNIVERSAL_TIME_OFFSET ( 1, 0, .AHEAD. ) ;
#89 = DIRECTION ( 'NONE',  ( 4.275831445896959482E-31, 1.000000000000000000, 1.224646799147353207E-16 ) ) ;
#90 = PERSON_AND_ORGANIZATION ( #14, #22 ) ;
#91 = FACE_OUTER_BOUND ( 'NONE', #158, .T. ) ;
#92 = EDGE_LOOP ( 'NONE', ( #16 ) ) ;
#93 = APPROVAL ( #194, 'UNSPECIFIED' ) ;
#94 = DIRECTION ( 'NONE',  ( 3.491481338843133355E-15, -1.224646799147353207E-16, 1.000000000000000000 ) ) ;
#95 = PERSON_AND_ORGANIZATION_ROLE ( 'design_owner' ) ;
#96 = DIRECTION ( 'NONE',  ( 3.491481338843133355E-15, -1.224646799147353207E-16, 1.000000000000000000 ) ) ;
#97 = MECHANICAL_CONTEXT ( 'NONE', #70, 'mechanical' ) ;
#98 = FACE_OUTER_BOUND ( 'NONE', #104, .T. ) ;
#99 = EDGE_CURVE ( 'NONE', #61, #61, #206, .T. ) ;
#100 = CC_DESIGN_SECURITY_CLASSIFICATION ( #102, ( #197 ) ) ;
#101 = DIRECTION ( 'NONE',  ( 0.0000000000000000000, 1.000000000000000000, 0.0000000000000000000 ) ) ;
#102 = SECURITY_CLASSIFICATION ( '', '', #187 ) ;
#103 = VERTEX_POINT ( 'NONE', #174 ) ;
#104 = EDGE_LOOP ( 'NONE', ( #150 ) ) ;
#105 = DATE_AND_TIME ( #205, #110 ) ;
#106 = ORIENTED_EDGE ( 'NONE', *, *, #168, .T. ) ;
#107 = FACE_BOUND ( 'NONE', #166, .T. ) ;
#108 = APPROVAL_STATUS ( 'not_yet_approved' ) ;
#109 = CARTESIAN_POINT ( 'NONE',  ( 3.582192684931457223E-14, -1.256464056309100442E-15, 10.25980762113533196 ) ) ;
#110 = LOCAL_TIME ( 7, 15, 8.000000000000000000, #159 ) ;
#111 = APPLICATION_PROTOCOL_DEFINITION ( 'international standard', 'config_control_design', 1994, #70 ) ;
#112 = PRODUCT_DEFINITION_SHAPE ( 'NONE', 'NONE',  #154 ) ;
#113 = CARTESIAN_POINT ( 'NONE',  ( 1.040461438975253740E-13, -3.649447461459112464E-15, 29.80000000000000071 ) ) ;
#114 =( LENGTH_UNIT ( ) NAMED_UNIT ( * ) SI_UNIT ( .MILLI., .METRE. ) );
#115 = DIRECTION ( 'NONE',  ( -3.491481338843133355E-15, 1.224646799147353207E-16, -1.000000000000000000 ) ) ;
#116 = PERSON_AND_ORGANIZATION ( #14, #22 ) ;
#117 = DIRECTION ( 'NONE',  ( 4.275831445896958607E-31, 1.000000000000000000, 1.224646799147353207E-16 ) ) ;
#118 = CALENDAR_DATE ( 2021, 8, 10 ) ;
#119 = DIRECTION ( 'NONE',  ( 0.0000000000000000000, 1.000000000000000000, 0.0000000000000000000 ) ) ;
#120 = CARTESIAN_POINT ( 'NONE',  ( 1.047444401652940007E-13, 0.5499999999999963807, 30.00000000000000000 ) ) ;
#121 = DATE_TIME_ROLE ( 'creation_date' ) ;
#122 = APPROVAL_PERSON_ORGANIZATION ( #79, #20, #56 ) ;
#123 = ADVANCED_FACE ( 'NONE', ( #217, #98 ), #31, .T. ) ;
#124 = PERSON_AND_ORGANIZATION ( #14, #22 ) ;
#125 = ORIENTED_EDGE ( 'NONE', *, *, #220, .T. ) ;
#126 = CARTESIAN_POINT ( 'NONE',  ( 0.0000000000000000000, 0.0000000000000000000, 0.0000000000000000000 ) ) ;
#127 = ORIENTED_EDGE ( 'NONE', *, *, #3, .F. ) ;
#128 = EDGE_CURVE ( 'NONE', #103, #103, #129, .T. ) ;
#129 = CIRCLE ( 'NONE', #51, 0.6000000000000001998 ) ;
#130 = ADVANCED_FACE ( 'NONE', ( #73, #107 ), #188, .T. ) ;
#131 = CALENDAR_DATE ( 2021, 8, 10 ) ;
#132 = DIRECTION ( 'NONE',  ( 1.000000000000000000, 0.0000000000000000000, 0.0000000000000000000 ) ) ;
#133 = COORDINATED_UNIVERSAL_TIME_OFFSET ( 1, 0, .AHEAD. ) ;
#134 = PLANE ( 'NONE',  #83 ) ;
#135 = ORIENTED_EDGE ( 'NONE', *, *, #128, .F. ) ;
#136 = CALENDAR_DATE ( 2021, 8, 10 ) ;
#137 = DIRECTION ( 'NONE',  ( 3.209883240645399803E-31, 1.000000000000000000, 9.035018104045889183E-17 ) ) ;
#138 = CARTESIAN_POINT ( 'NONE',  ( 1.258736183148287584E-15, 0.5999999999999987566, 0.3605163714165394717 ) ) ;
#139 = DIRECTION ( 'NONE',  ( 0.0000000000000000000, 1.000000000000000000, 0.0000000000000000000 ) ) ;
#140 = AXIS2_PLACEMENT_3D ( 'NONE', #26, #65, #101 ) ;
#141 = EDGE_LOOP ( 'NONE', ( #192 ) ) ;
#142 = CC_DESIGN_DATE_AND_TIME_ASSIGNMENT ( #33, #211, ( #102 ) ) ;
#143 = ADVANCED_FACE ( 'NONE', ( #144 ), #199, .F. ) ;
#144 = FACE_OUTER_BOUND ( 'NONE', #55, .T. ) ;
#145 = AXIS2_PLACEMENT_3D ( 'NONE', #109, #94, #165 ) ;
#146 = APPROVAL_ROLE ( '' ) ;
#147 = CARTESIAN_POINT ( 'NONE',  ( 3.491481338843133355E-14, 0.5999999999999989786, 10.00000000000000000 ) ) ;
#148 = AXIS2_PLACEMENT_3D ( 'NONE', #196, #15, #44 ) ;
#149 = EDGE_LOOP ( 'NONE', ( #135 ) ) ;
#150 = ORIENTED_EDGE ( 'NONE', *, *, #128, .T. ) ;
#151 = ADVANCED_FACE ( 'NONE', ( #57 ), #134, .F. ) ;
#152 = DIRECTION ( 'NONE',  ( -3.491481338843133355E-15, 1.224646799147353207E-16, -1.000000000000000000 ) ) ;
#153 = CYLINDRICAL_SURFACE ( 'NONE', #189, 0.7499999999999986677 ) ;
#154 = PRODUCT_DEFINITION ( 'UNKNOWN', '', #197, #178 ) ;
#155 = CONICAL_SURFACE ( 'NONE', #145, 0.7499999999999976685, 0.5235987755982918213 ) ;
#156 = CC_DESIGN_APPROVAL ( #93, ( #197 ) ) ;
#157 = PERSON_AND_ORGANIZATION_ROLE ( 'creator' ) ;
#158 = EDGE_LOOP ( 'NONE', ( #68 ) ) ;
#159 = COORDINATED_UNIVERSAL_TIME_OFFSET ( 1, 0, .AHEAD. ) ;
#160 = APPLICATION_CONTEXT ( 'configuration controlled 3d designs of mechanical parts and assemblies' ) ;
#161 = FACE_OUTER_BOUND ( 'NONE', #48, .T. ) ;
#162 = MANIFOLD_SOLID_BREP ( 'Corps-Déplacer/Copier1[2]', #191 ) ;
#163 = CARTESIAN_POINT ( 'NONE',  ( 1.258736183148287386E-15, -4.415052202954833308E-17, 0.3605163714165394162 ) ) ;
#164 = APPROVAL_ROLE ( '' ) ;
#165 = DIRECTION ( 'NONE',  ( 0.0000000000000000000, -1.000000000000000000, 0.0000000000000000000 ) ) ;
#166 = EDGE_LOOP ( 'NONE', ( #106 ) ) ;
#167 = DIRECTION ( 'NONE',  ( -4.275831445896958607E-31, -1.000000000000000000, -1.224646799147353207E-16 ) ) ;
#168 = EDGE_CURVE ( 'NONE', #39, #39, #212, .T. ) ;
#169 = CARTESIAN_POINT ( 'NONE',  ( 0.0000000000000000000, 0.0000000000000000000, 0.0000000000000000000 ) ) ;
#170 = AXIS2_PLACEMENT_3D ( 'NONE', #13, #203, #36 ) ;
#171 = CC_DESIGN_PERSON_AND_ORGANIZATION_ASSIGNMENT ( #43, #157, ( #197 ) ) ;
#172 = FACE_OUTER_BOUND ( 'NONE', #141, .T. ) ;
#173 = APPROVAL_DATE_TIME ( #62, #93 ) ;
#174 = CARTESIAN_POINT ( 'NONE',  ( 3.491481338843133355E-14, 0.5999999999999989786, 10.00000000000000000 ) ) ;
#175 = ORIENTED_EDGE ( 'NONE', *, *, #220, .F. ) ;
#176 = CARTESIAN_POINT ( 'NONE',  ( 3.491481338843133355E-14, -1.224646799147353256E-15, 10.00000000000000000 ) ) ;
#177 = CC_DESIGN_PERSON_AND_ORGANIZATION_ASSIGNMENT ( #116, #210, ( #102 ) ) ;
#178 = DESIGN_CONTEXT ( 'detailed design', #160, 'design' ) ;
#179 = DIRECTION ( 'NONE',  ( -3.491481338843133355E-15, 1.224646799147353207E-16, -1.000000000000000000 ) ) ;
#180 = APPROVAL_DATE_TIME ( #87, #20 ) ;
#181 = PERSON_AND_ORGANIZATION ( #14, #22 ) ;
#182 = DIRECTION ( 'NONE',  ( -3.491481338843133355E-15, 1.224646799147353207E-16, -1.000000000000000000 ) ) ;
#183 = CONICAL_SURFACE ( 'NONE', #64, 0.5999999999999987566, 1.029744258676649649 ) ;
#184 = CC_DESIGN_DATE_AND_TIME_ASSIGNMENT ( #63, #121, ( #154 ) ) ;
#185 = ORIENTED_EDGE ( 'NONE', *, *, #168, .F. ) ;
#186 = CARTESIAN_POINT ( 'NONE',  ( 0.0000000000000000000, 0.0000000000000000000, 0.0000000000000000000 ) ) ;
#187 = SECURITY_CLASSIFICATION_LEVEL ( 'unclassified' ) ;
#188 = CONICAL_SURFACE ( 'NONE', #11, 0.5500000000000000444, 0.7853981633974510546 ) ;
#189 = AXIS2_PLACEMENT_3D ( 'NONE', #126, #179, #89 ) ;
#190 = CC_DESIGN_PERSON_AND_ORGANIZATION_ASSIGNMENT ( #90, #54, ( #154 ) ) ;
#191 = CLOSED_SHELL ( 'NONE', ( #66, #123, #25 ) ) ;
#192 = ORIENTED_EDGE ( 'NONE', *, *, #18, .T. ) ;
#193 = FACE_OUTER_BOUND ( 'NONE', #149, .T. ) ;
#194 = APPROVAL_STATUS ( 'not_yet_approved' ) ;
#195 = AXIS2_PLACEMENT_3D ( 'NONE', #186, #85, #132 ) ;
#196 = CARTESIAN_POINT ( 'NONE',  ( 3.491481338843133355E-14, 4.499279347985556402E-33, 10.00000000000000000 ) ) ;
#197 = PRODUCT_DEFINITION_FORMATION_WITH_SPECIFIED_SOURCE ( 'ANY', '', #12, .NOT_KNOWN. ) ;
#198 = VERTEX_POINT ( 'NONE', #219 ) ;
#199 = PLANE ( 'NONE',  #4 ) ;
#200 =( NAMED_UNIT ( * ) PLANE_ANGLE_UNIT ( ) SI_UNIT ( $, .RADIAN. ) );
#201 = CC_DESIGN_APPROVAL ( #24, ( #102 ) ) ;
#202 = COORDINATED_UNIVERSAL_TIME_OFFSET ( 1, 0, .AHEAD. ) ;
#203 = DIRECTION ( 'NONE',  ( -3.491481338843133355E-15, 1.224646799147353207E-16, -1.000000000000000000 ) ) ;
#204 =( NAMED_UNIT ( * ) SI_UNIT ( $, .STERADIAN. ) SOLID_ANGLE_UNIT ( ) );
#205 = CALENDAR_DATE ( 2021, 8, 10 ) ;
#206 = CIRCLE ( 'NONE', #45, 0.5999999999999987566 ) ;
#207 =( GEOMETRIC_REPRESENTATION_CONTEXT ( 3 ) GLOBAL_UNCERTAINTY_ASSIGNED_CONTEXT ( ( #28 ) ) GLOBAL_UNIT_ASSIGNED_CONTEXT ( ( #114, #200, #204 ) ) REPRESENTATION_CONTEXT ( 'NONE', 'WORKASPACE' ) );
#208 = EDGE_LOOP ( 'NONE', ( #185 ) ) ;
#209 = CC_DESIGN_PERSON_AND_ORGANIZATION_ASSIGNMENT ( #74, #95, ( #12 ) ) ;
#210 = PERSON_AND_ORGANIZATION_ROLE ( 'classification_officer' ) ;
#211 = DATE_TIME_ROLE ( 'classification_date' ) ;
#212 = CIRCLE ( 'NONE', #140, 0.5500000000000000444 ) ;
#213 = DIRECTION ( 'NONE',  ( 4.275831445896957731E-31, 1.000000000000000000, 1.224646799147353207E-16 ) ) ;
#214 = PERSON_AND_ORGANIZATION_ROLE ( 'design_supplier' ) ;
#215 = LOCAL_TIME ( 7, 15, 8.000000000000000000, #88 ) ;
#216 = CARTESIAN_POINT ( 'NONE',  ( 1.258736183148287386E-15, -4.415052202954833308E-17, 0.3605163714165394162 ) ) ;
#217 = FACE_OUTER_BOUND ( 'NONE', #84, .T. ) ;
#218 = CIRCLE ( 'NONE', #17, 0.7499999999999998890 ) ;
#219 = CARTESIAN_POINT ( 'NONE',  ( 3.582192684931457223E-14, 0.7499999999999963363, 10.25980762113533196 ) ) ;
#220 = EDGE_CURVE ( 'NONE', #35, #35, #37, .T. ) ;
#221 = CALENDAR_DATE ( 2021, 8, 10 ) ;
#222 = AXIS2_PLACEMENT_3D ( 'NONE', #169, #182, #213 ) ;
#223 = ADVANCED_FACE ( 'NONE', ( #82, #172 ), #153, .T. ) ;
ENDSEC;
END-ISO-10303-21;
