ISO-10303-21;
HEADER;
FILE_DESCRIPTION (( 'STEP AP203' ),
    '1' );
FILE_NAME ('55371.step',
    '2021-10-08T05:15:07',
    ( '' ),
    ( '' ),
    'SwSTEP 2.0',
    'SolidWorks 2019',
    '' );
FILE_SCHEMA (( 'CONFIG_CONTROL_DESIGN' ));
ENDSEC;

DATA;
#1 = DIRECTION ( 'NONE',  ( 4.275831445896959482E-31, 1.000000000000000000, 1.224646799147353207E-16 ) ) ;
#2 = DIRECTION ( 'NONE',  ( -3.491481338843133355E-15, 1.224646799147353207E-16, -1.000000000000000000 ) ) ;
#3 = CALENDAR_DATE ( 2021, 8, 10 ) ;
#4 = PRODUCT_DEFINITION ( 'UNKNOWN', '', #219, #207 ) ;
#5 = DATE_AND_TIME ( #3, #129 ) ;
#6 = ORIENTED_EDGE ( 'NONE', *, *, #184, .F. ) ;
#7 = CALENDAR_DATE ( 2021, 8, 10 ) ;
#8 = DIRECTION ( 'NONE',  ( -3.491481338843133355E-15, 1.224646799147353207E-16, -1.000000000000000000 ) ) ;
#9 = CARTESIAN_POINT ( 'NONE',  ( 3.491481338843133355E-14, 4.461785353419011741E-33, 10.00000000000000000 ) ) ;
#10 = DIRECTION ( 'NONE',  ( -3.491481338843133355E-15, 1.224646799147353207E-16, -1.000000000000000000 ) ) ;
#11 = LOCAL_TIME ( 7, 15, 7.000000000000000000, #121 ) ;
#12 = ORIENTED_EDGE ( 'NONE', *, *, #102, .F. ) ;
#13 = EDGE_LOOP ( 'NONE', ( #12 ) ) ;
#14 = PRODUCT ( '55371', '55371', '', ( #179 ) ) ;
#15 = APPROVAL_ROLE ( '' ) ;
#16 = FACE_BOUND ( 'NONE', #70, .T. ) ;
#17 = ADVANCED_FACE ( 'NONE', ( #110 ), #53, .F. ) ;
#18 = AXIS2_PLACEMENT_3D ( 'NONE', #58, #201, #56 ) ;
#19 = VERTEX_POINT ( 'NONE', #140 ) ;
#20 = ADVANCED_FACE ( 'NONE', ( #24 ), #185, .F. ) ;
#21 = APPROVAL_PERSON_ORGANIZATION ( #34, #33, #165 ) ;
#22 = ORIENTED_EDGE ( 'NONE', *, *, #151, .T. ) ;
#23 = ORIENTED_EDGE ( 'NONE', *, *, #95, .T. ) ;
#24 = FACE_OUTER_BOUND ( 'NONE', #13, .T. ) ;
#25 = DIRECTION ( 'NONE',  ( -4.275831445896958607E-31, -1.000000000000000000, -1.224646799147353207E-16 ) ) ;
#26 = FACE_OUTER_BOUND ( 'NONE', #213, .T. ) ;
#27 = FACE_OUTER_BOUND ( 'NONE', #152, .T. ) ;
#28 = CARTESIAN_POINT ( 'NONE',  ( 3.491481338843133355E-14, 0.5949999999999991962, 10.00000000000000000 ) ) ;
#29 = AXIS2_PLACEMENT_3D ( 'NONE', #92, #133, #25 ) ;
#30 = VERTEX_POINT ( 'NONE', #80 ) ;
#31 = AXIS2_PLACEMENT_3D ( 'NONE', #130, #71, #84 ) ;
#32 = ADVANCED_BREP_SHAPE_REPRESENTATION ( '55371', ( #153, #150, #31 ), #155 ) ;
#33 = APPROVAL ( #90, 'UNSPECIFIED' ) ;
#34 = PERSON_AND_ORGANIZATION ( #44, #205 ) ;
#35 = ORIENTED_EDGE ( 'NONE', *, *, #184, .T. ) ;
#36 = PERSON_AND_ORGANIZATION ( #44, #205 ) ;
#37 = COORDINATED_UNIVERSAL_TIME_OFFSET ( 1, 0, .AHEAD. ) ;
#38 = DATE_AND_TIME ( #114, #166 ) ;
#39 = AXIS2_PLACEMENT_3D ( 'NONE', #57, #42, #116 ) ;
#40 = FACE_OUTER_BOUND ( 'NONE', #169, .T. ) ;
#41 = CARTESIAN_POINT ( 'NONE',  ( 0.0000000000000000000, 0.0000000000000000000, 0.0000000000000000000 ) ) ;
#42 = DIRECTION ( 'NONE',  ( -3.491481338843133355E-15, 1.224646799147353207E-16, -1.000000000000000000 ) ) ;
#43 = CONICAL_SURFACE ( 'NONE', #18, 0.5500000000000000444, 0.7853981633974510546 ) ;
#44 = PERSON ( 'UNSPECIFIED', 'UNSPECIFIED', 'UNSPECIFIED', ('UNSPECIFIED'), ('UNSPECIFIED'), ('UNSPECIFIED') ) ;
#45 = DIRECTION ( 'NONE',  ( 3.236857049390318375E-31, 1.000000000000000000, 9.110942625928625624E-17 ) ) ;
#46 = VERTEX_POINT ( 'NONE', #189 ) ;
#47 = AXIS2_PLACEMENT_3D ( 'NONE', #41, #154, #220 ) ;
#48 = PERSON_AND_ORGANIZATION ( #44, #205 ) ;
#49 = UNCERTAINTY_MEASURE_WITH_UNIT (LENGTH_MEASURE( 1.000000000000000082E-05 ), #125, 'distance_accuracy_value', 'NONE');
#50 = AXIS2_PLACEMENT_3D ( 'NONE', #94, #173, #75 ) ;
#51 = CC_DESIGN_DATE_AND_TIME_ASSIGNMENT ( #216, #177, ( #209 ) ) ;
#52 = EDGE_LOOP ( 'NONE', ( #222 ) ) ;
#53 = PLANE ( 'NONE',  #29 ) ;
#54 = CIRCLE ( 'NONE', #176, 0.7499999999999976685 ) ;
#55 = CONICAL_SURFACE ( 'NONE', #106, 0.7499999999999976685, 0.5235987755982929315 ) ;
#56 = DIRECTION ( 'NONE',  ( 0.0000000000000000000, 1.000000000000000000, 0.0000000000000000000 ) ) ;
#57 = CARTESIAN_POINT ( 'NONE',  ( 3.491481338843133355E-14, -1.224646799147353256E-15, 10.00000000000000000 ) ) ;
#58 = CARTESIAN_POINT ( 'NONE',  ( 1.047444401652940007E-13, -3.673940397442059178E-15, 30.00000000000000000 ) ) ;
#59 = LOCAL_TIME ( 7, 15, 7.000000000000000000, #83 ) ;
#60 = PRODUCT_RELATED_PRODUCT_CATEGORY ( 'detail', '', ( #14 ) ) ;
#61 = DIRECTION ( 'NONE',  ( 3.491481338843133355E-15, -1.224646799147353207E-16, 1.000000000000000000 ) ) ;
#62 = EDGE_CURVE ( 'NONE', #19, #19, #211, .T. ) ;
#63 = CARTESIAN_POINT ( 'NONE',  ( 3.491481338843133355E-14, 0.5949999999999991962, 10.00000000000000000 ) ) ;
#64 = APPROVAL_DATE_TIME ( #38, #141 ) ;
#65 = CYLINDRICAL_SURFACE ( 'NONE', #79, 0.7499999999999986677 ) ;
#66 = CONICAL_SURFACE ( 'NONE', #50, 0.5949999999999988631, 1.029744258676649649 ) ;
#67 = PERSON_AND_ORGANIZATION ( #44, #205 ) ;
#68 = APPROVAL_DATE_TIME ( #5, #33 ) ;
#69 = ADVANCED_FACE ( 'NONE', ( #197, #221 ), #43, .T. ) ;
#70 = EDGE_LOOP ( 'NONE', ( #135 ) ) ;
#71 = DIRECTION ( 'NONE',  ( 0.0000000000000000000, 0.0000000000000000000, 1.000000000000000000 ) ) ;
#72 = CC_DESIGN_PERSON_AND_ORGANIZATION_ASSIGNMENT ( #136, #104, ( #4 ) ) ;
#73 = FACE_OUTER_BOUND ( 'NONE', #170, .T. ) ;
#74 = DIRECTION ( 'NONE',  ( 4.275831445896958607E-31, 1.000000000000000000, 1.224646799147353207E-16 ) ) ;
#75 = DIRECTION ( 'NONE',  ( -3.236857049390318375E-31, -1.000000000000000000, -9.110942625928625624E-17 ) ) ;
#76 = EDGE_LOOP ( 'NONE', ( #218 ) ) ;
#77 = DIRECTION ( 'NONE',  ( -3.491481338843133355E-15, 1.224646799147353207E-16, -1.000000000000000000 ) ) ;
#78 = APPROVAL_ROLE ( '' ) ;
#79 = AXIS2_PLACEMENT_3D ( 'NONE', #100, #138, #1 ) ;
#80 = CARTESIAN_POINT ( 'NONE',  ( 3.585216396467734727E-14, 0.7499999999999963363, 10.26846787517317594 ) ) ;
#81 = CC_DESIGN_PERSON_AND_ORGANIZATION_ASSIGNMENT ( #36, #131, ( #209 ) ) ;
#82 = CLOSED_SHELL ( 'NONE', ( #103, #86, #107 ) ) ;
#83 = COORDINATED_UNIVERSAL_TIME_OFFSET ( 1, 0, .AHEAD. ) ;
#84 = DIRECTION ( 'NONE',  ( 1.000000000000000000, 0.0000000000000000000, 0.0000000000000000000 ) ) ;
#85 = CIRCLE ( 'NONE', #39, 0.5950000000000004174 ) ;
#86 = ADVANCED_FACE ( 'NONE', ( #93, #73 ), #96, .T. ) ;
#87 = CC_DESIGN_APPROVAL ( #141, ( #4 ) ) ;
#88 = DATE_AND_TIME ( #161, #59 ) ;
#89 = EDGE_LOOP ( 'NONE', ( #195 ) ) ;
#90 = APPROVAL_STATUS ( 'not_yet_approved' ) ;
#91 = CC_DESIGN_SECURITY_CLASSIFICATION ( #209, ( #219 ) ) ;
#92 = CARTESIAN_POINT ( 'NONE',  ( 3.491481338843133355E-14, 4.461785353419011741E-33, 10.00000000000000000 ) ) ;
#93 = FACE_OUTER_BOUND ( 'NONE', #52, .T. ) ;
#94 = CARTESIAN_POINT ( 'NONE',  ( 1.248246714955385103E-15, -4.378260101263543883E-17, 0.3575120683214016437 ) ) ;
#95 = EDGE_CURVE ( 'NONE', #30, #30, #54, .T. ) ;
#96 = CYLINDRICAL_SURFACE ( 'NONE', #47, 0.5949999999999996403 ) ;
#97 = CARTESIAN_POINT ( 'NONE',  ( 1.047444401652940007E-13, -3.673940397442059178E-15, 30.00000000000000000 ) ) ;
#98 = DATE_AND_TIME ( #120, #11 ) ;
#99 =( NAMED_UNIT ( * ) PLANE_ANGLE_UNIT ( ) SI_UNIT ( $, .RADIAN. ) );
#100 = CARTESIAN_POINT ( 'NONE',  ( 0.0000000000000000000, 0.0000000000000000000, 0.0000000000000000000 ) ) ;
#101 = SHAPE_DEFINITION_REPRESENTATION ( #108, #32 ) ;
#102 = EDGE_CURVE ( 'NONE', #122, #122, #123, .T. ) ;
#103 = ADVANCED_FACE ( 'NONE', ( #27 ), #66, .T. ) ;
#104 = PERSON_AND_ORGANIZATION_ROLE ( 'creator' ) ;
#105 = EDGE_LOOP ( 'NONE', ( #128 ) ) ;
#106 = AXIS2_PLACEMENT_3D ( 'NONE', #157, #156, #175 ) ;
#107 = ADVANCED_FACE ( 'NONE', ( #40 ), #149, .T. ) ;
#108 = PRODUCT_DEFINITION_SHAPE ( 'NONE', 'NONE',  #4 ) ;
#109 = PERSON_AND_ORGANIZATION ( #44, #205 ) ;
#110 = FACE_OUTER_BOUND ( 'NONE', #199, .T. ) ;
#111 = APPROVAL_STATUS ( 'not_yet_approved' ) ;
#112 = APPROVAL ( #192, 'UNSPECIFIED' ) ;
#113 = DIRECTION ( 'NONE',  ( -3.491481338843133355E-15, 1.224646799147353207E-16, -1.000000000000000000 ) ) ;
#114 = CALENDAR_DATE ( 2021, 8, 10 ) ;
#115 = CARTESIAN_POINT ( 'NONE',  ( 3.585216396467734727E-14, -1.257524631547825092E-15, 10.26846787517317594 ) ) ;
#116 = DIRECTION ( 'NONE',  ( 0.0000000000000000000, 1.000000000000000000, 0.0000000000000000000 ) ) ;
#117 = AXIS2_PLACEMENT_3D ( 'NONE', #167, #8, #183 ) ;
#118 = DIRECTION ( 'NONE',  ( 0.0000000000000000000, 1.000000000000000000, 0.0000000000000000000 ) ) ;
#119 = CARTESIAN_POINT ( 'NONE',  ( 1.047444401652940007E-13, 0.5499999999999963807, 30.00000000000000000 ) ) ;
#120 = CALENDAR_DATE ( 2021, 8, 10 ) ;
#121 = COORDINATED_UNIVERSAL_TIME_OFFSET ( 1, 0, .AHEAD. ) ;
#122 = VERTEX_POINT ( 'NONE', #119 ) ;
#123 = CIRCLE ( 'NONE', #190, 0.5500000000000000444 ) ;
#124 = APPROVAL_PERSON_ORGANIZATION ( #48, #112, #78 ) ;
#125 =( LENGTH_UNIT ( ) NAMED_UNIT ( * ) SI_UNIT ( .MILLI., .METRE. ) );
#126 =( NAMED_UNIT ( * ) SI_UNIT ( $, .STERADIAN. ) SOLID_ANGLE_UNIT ( ) );
#127 = CC_DESIGN_PERSON_AND_ORGANIZATION_ASSIGNMENT ( #158, #160, ( #219 ) ) ;
#128 = ORIENTED_EDGE ( 'NONE', *, *, #62, .T. ) ;
#129 = LOCAL_TIME ( 7, 15, 7.000000000000000000, #194 ) ;
#130 = CARTESIAN_POINT ( 'NONE',  ( 0.0000000000000000000, 0.0000000000000000000, 0.0000000000000000000 ) ) ;
#131 = PERSON_AND_ORGANIZATION_ROLE ( 'classification_officer' ) ;
#132 = CARTESIAN_POINT ( 'NONE',  ( 1.047444401652940007E-13, 4.124339402320052999E-33, 30.00000000000000000 ) ) ;
#133 = DIRECTION ( 'NONE',  ( 3.491481338843133355E-15, -1.224646799147353207E-16, 1.000000000000000000 ) ) ;
#134 = ORIENTED_EDGE ( 'NONE', *, *, #163, .T. ) ;
#135 = ORIENTED_EDGE ( 'NONE', *, *, #163, .F. ) ;
#136 = PERSON_AND_ORGANIZATION ( #44, #205 ) ;
#137 = APPLICATION_PROTOCOL_DEFINITION ( 'international standard', 'config_control_design', 1994, #164 ) ;
#138 = DIRECTION ( 'NONE',  ( -3.491481338843133355E-15, 1.224646799147353207E-16, -1.000000000000000000 ) ) ;
#139 = CC_DESIGN_APPROVAL ( #112, ( #219 ) ) ;
#140 = CARTESIAN_POINT ( 'NONE',  ( 1.040461438975253740E-13, 0.7499999999999962252, 29.80000000000000071 ) ) ;
#141 = APPROVAL ( #111, 'UNSPECIFIED' ) ;
#142 = AXIS2_PLACEMENT_3D ( 'NONE', #203, #10, #45 ) ;
#143 = CC_DESIGN_PERSON_AND_ORGANIZATION_ASSIGNMENT ( #214, #210, ( #219 ) ) ;
#144 = CC_DESIGN_PERSON_AND_ORGANIZATION_ASSIGNMENT ( #109, #145, ( #14 ) ) ;
#145 = PERSON_AND_ORGANIZATION_ROLE ( 'design_owner' ) ;
#146 = DIRECTION ( 'NONE',  ( -3.491481338843133355E-15, 1.224646799147353207E-16, -1.000000000000000000 ) ) ;
#147 = SECURITY_CLASSIFICATION_LEVEL ( 'unclassified' ) ;
#148 = CC_DESIGN_APPROVAL ( #33, ( #209 ) ) ;
#149 = PLANE ( 'NONE',  #180 ) ;
#150 = MANIFOLD_SOLID_BREP ( 'Corps-Déplacer/Copier1[2]', #82 ) ;
#151 = EDGE_CURVE ( 'NONE', #46, #46, #217, .T. ) ;
#152 = EDGE_LOOP ( 'NONE', ( #22 ) ) ;
#153 = MANIFOLD_SOLID_BREP ( 'Corps-Déplacer/Copier1[1]', #208 ) ;
#154 = DIRECTION ( 'NONE',  ( -3.491481338843133355E-15, 1.224646799147353207E-16, -1.000000000000000000 ) ) ;
#155 =( GEOMETRIC_REPRESENTATION_CONTEXT ( 3 ) GLOBAL_UNCERTAINTY_ASSIGNED_CONTEXT ( ( #49 ) ) GLOBAL_UNIT_ASSIGNED_CONTEXT ( ( #125, #99, #126 ) ) REPRESENTATION_CONTEXT ( 'NONE', 'WORKASPACE' ) );
#156 = DIRECTION ( 'NONE',  ( 3.491481338843133355E-15, -1.224646799147353207E-16, 1.000000000000000000 ) ) ;
#157 = CARTESIAN_POINT ( 'NONE',  ( 3.585216396467734727E-14, -1.257524631547825092E-15, 10.26846787517317594 ) ) ;
#158 = PERSON_AND_ORGANIZATION ( #44, #205 ) ;
#159 = CARTESIAN_POINT ( 'NONE',  ( 3.491481338843133355E-14, -1.224646799147353256E-15, 10.00000000000000000 ) ) ;
#160 = PERSON_AND_ORGANIZATION_ROLE ( 'creator' ) ;
#161 = CALENDAR_DATE ( 2021, 8, 10 ) ;
#162 = APPLICATION_PROTOCOL_DEFINITION ( 'international standard', 'config_control_design', 1994, #212 ) ;
#163 = EDGE_CURVE ( 'NONE', #187, #187, #85, .T. ) ;
#164 = APPLICATION_CONTEXT ( 'configuration controlled 3d designs of mechanical parts and assemblies' ) ;
#165 = APPROVAL_ROLE ( '' ) ;
#166 = LOCAL_TIME ( 7, 15, 7.000000000000000000, #196 ) ;
#167 = CARTESIAN_POINT ( 'NONE',  ( 1.040461438975253740E-13, -3.649447461459112464E-15, 29.80000000000000071 ) ) ;
#168 = APPROVAL_DATE_TIME ( #98, #112 ) ;
#169 = EDGE_LOOP ( 'NONE', ( #6 ) ) ;
#170 = EDGE_LOOP ( 'NONE', ( #35 ) ) ;
#171 = APPROVAL_PERSON_ORGANIZATION ( #67, #141, #15 ) ;
#172 = FACE_OUTER_BOUND ( 'NONE', #105, .T. ) ;
#173 = DIRECTION ( 'NONE',  ( 3.491481338843133355E-15, -1.224646799147353207E-16, 1.000000000000000000 ) ) ;
#174 = FACE_OUTER_BOUND ( 'NONE', #181, .T. ) ;
#175 = DIRECTION ( 'NONE',  ( 0.0000000000000000000, -1.000000000000000000, 0.0000000000000000000 ) ) ;
#176 = AXIS2_PLACEMENT_3D ( 'NONE', #115, #146, #182 ) ;
#177 = DATE_TIME_ROLE ( 'classification_date' ) ;
#178 = ADVANCED_FACE ( 'NONE', ( #26, #172 ), #65, .T. ) ;
#179 = MECHANICAL_CONTEXT ( 'NONE', #164, 'mechanical' ) ;
#180 = AXIS2_PLACEMENT_3D ( 'NONE', #9, #61, #215 ) ;
#181 = EDGE_LOOP ( 'NONE', ( #23 ) ) ;
#182 = DIRECTION ( 'NONE',  ( 0.0000000000000000000, 1.000000000000000000, 0.0000000000000000000 ) ) ;
#183 = DIRECTION ( 'NONE',  ( 0.0000000000000000000, 1.000000000000000000, 0.0000000000000000000 ) ) ;
#184 = EDGE_CURVE ( 'NONE', #204, #204, #198, .T. ) ;
#185 = PLANE ( 'NONE',  #223 ) ;
#186 = CC_DESIGN_DATE_AND_TIME_ASSIGNMENT ( #88, #188, ( #4 ) ) ;
#187 = VERTEX_POINT ( 'NONE', #63 ) ;
#188 = DATE_TIME_ROLE ( 'creation_date' ) ;
#189 = CARTESIAN_POINT ( 'NONE',  ( 1.248246714955385300E-15, 0.5949999999999988631, 0.3575120683214016992 ) ) ;
#190 = AXIS2_PLACEMENT_3D ( 'NONE', #97, #113, #118 ) ;
#191 = DIRECTION ( 'NONE',  ( 0.0000000000000000000, 1.000000000000000000, 0.0000000000000000000 ) ) ;
#192 = APPROVAL_STATUS ( 'not_yet_approved' ) ;
#193 = LOCAL_TIME ( 7, 15, 7.000000000000000000, #37 ) ;
#194 = COORDINATED_UNIVERSAL_TIME_OFFSET ( 1, 0, .AHEAD. ) ;
#195 = ORIENTED_EDGE ( 'NONE', *, *, #62, .F. ) ;
#196 = COORDINATED_UNIVERSAL_TIME_OFFSET ( 1, 0, .AHEAD. ) ;
#197 = FACE_OUTER_BOUND ( 'NONE', #89, .T. ) ;
#198 = CIRCLE ( 'NONE', #202, 0.5950000000000004174 ) ;
#199 = EDGE_LOOP ( 'NONE', ( #134 ) ) ;
#200 = ORIENTED_EDGE ( 'NONE', *, *, #95, .F. ) ;
#201 = DIRECTION ( 'NONE',  ( -3.491481338843133355E-15, 1.224646799147353207E-16, -1.000000000000000000 ) ) ;
#202 = AXIS2_PLACEMENT_3D ( 'NONE', #159, #2, #191 ) ;
#203 = CARTESIAN_POINT ( 'NONE',  ( 1.248246714955385103E-15, -4.378260101263543883E-17, 0.3575120683214016437 ) ) ;
#204 = VERTEX_POINT ( 'NONE', #28 ) ;
#205 = ORGANIZATION ( 'UNSPECIFIED', 'UNSPECIFIED', '' ) ;
#206 = ADVANCED_FACE ( 'NONE', ( #16, #174 ), #55, .T. ) ;
#207 = DESIGN_CONTEXT ( 'detailed design', #212, 'design' ) ;
#208 = CLOSED_SHELL ( 'NONE', ( #17, #206, #178, #69, #20 ) ) ;
#209 = SECURITY_CLASSIFICATION ( '', '', #147 ) ;
#210 = PERSON_AND_ORGANIZATION_ROLE ( 'design_supplier' ) ;
#211 = CIRCLE ( 'NONE', #117, 0.7499999999999998890 ) ;
#212 = APPLICATION_CONTEXT ( 'configuration controlled 3d designs of mechanical parts and assemblies' ) ;
#213 = EDGE_LOOP ( 'NONE', ( #200 ) ) ;
#214 = PERSON_AND_ORGANIZATION ( #44, #205 ) ;
#215 = DIRECTION ( 'NONE',  ( -4.275831445896958607E-31, -1.000000000000000000, -1.224646799147353207E-16 ) ) ;
#216 = DATE_AND_TIME ( #7, #193 ) ;
#217 = CIRCLE ( 'NONE', #142, 0.5949999999999988631 ) ;
#218 = ORIENTED_EDGE ( 'NONE', *, *, #102, .T. ) ;
#219 = PRODUCT_DEFINITION_FORMATION_WITH_SPECIFIED_SOURCE ( 'ANY', '', #14, .NOT_KNOWN. ) ;
#220 = DIRECTION ( 'NONE',  ( 4.275831445896958607E-31, 1.000000000000000000, 1.224646799147353207E-16 ) ) ;
#221 = FACE_BOUND ( 'NONE', #76, .T. ) ;
#222 = ORIENTED_EDGE ( 'NONE', *, *, #151, .F. ) ;
#223 = AXIS2_PLACEMENT_3D ( 'NONE', #132, #77, #74 ) ;
ENDSEC;
END-ISO-10303-21;
