ISO-10303-21;
HEADER;
FILE_DESCRIPTION (( 'STEP AP203' ),
    '1' );
FILE_NAME ('55370.step',
    '2021-10-08T05:15:07',
    ( '' ),
    ( '' ),
    'SwSTEP 2.0',
    'SolidWorks 2019',
    '' );
FILE_SCHEMA (( 'CONFIG_CONTROL_DESIGN' ));
ENDSEC;

DATA;
#1 = FACE_OUTER_BOUND ( 'NONE', #179, .T. ) ;
#2 = CIRCLE ( 'NONE', #107, 0.5900000000000017453 ) ;
#3 = ORIENTED_EDGE ( 'NONE', *, *, #70, .T. ) ;
#4 = ORIENTED_EDGE ( 'NONE', *, *, #201, .T. ) ;
#5 = DIRECTION ( 'NONE',  ( -3.491481338843133355E-15, 1.224646799147353207E-16, -1.000000000000000000 ) ) ;
#6 = CC_DESIGN_PERSON_AND_ORGANIZATION_ASSIGNMENT ( #152, #217, ( #20 ) ) ;
#7 =( NAMED_UNIT ( * ) SI_UNIT ( $, .STERADIAN. ) SOLID_ANGLE_UNIT ( ) );
#8 = CIRCLE ( 'NONE', #67, 0.5900000000000017453 ) ;
#9 = CYLINDRICAL_SURFACE ( 'NONE', #104, 0.5900000000000003020 ) ;
#10 = PLANE ( 'NONE',  #95 ) ;
#11 = AXIS2_PLACEMENT_3D ( 'NONE', #143, #223, #178 ) ;
#12 = FACE_OUTER_BOUND ( 'NONE', #72, .T. ) ;
#13 = PERSON_AND_ORGANIZATION_ROLE ( 'creator' ) ;
#14 =( GEOMETRIC_REPRESENTATION_CONTEXT ( 3 ) GLOBAL_UNCERTAINTY_ASSIGNED_CONTEXT ( ( #73 ) ) GLOBAL_UNIT_ASSIGNED_CONTEXT ( ( #128, #181, #7 ) ) REPRESENTATION_CONTEXT ( 'NONE', 'WORKASPACE' ) );
#15 = COORDINATED_UNIVERSAL_TIME_OFFSET ( 1, 0, .AHEAD. ) ;
#16 = PERSON_AND_ORGANIZATION ( #174, #119 ) ;
#17 = EDGE_CURVE ( 'NONE', #185, #185, #2, .T. ) ;
#18 = PERSON_AND_ORGANIZATION_ROLE ( 'design_owner' ) ;
#19 = PRODUCT ( '55370', '55370', '', ( #84 ) ) ;
#20 = PRODUCT_DEFINITION ( 'UNKNOWN', '', #175, #53 ) ;
#21 = EDGE_LOOP ( 'NONE', ( #54 ) ) ;
#22 = EDGE_LOOP ( 'NONE', ( #108 ) ) ;
#23 = CC_DESIGN_PERSON_AND_ORGANIZATION_ASSIGNMENT ( #220, #13, ( #175 ) ) ;
#24 = CIRCLE ( 'NONE', #145, 0.7499999999999974465 ) ;
#25 = CARTESIAN_POINT ( 'NONE',  ( 3.239091974119698265E-14, -1.136120526871814790E-15, 9.277128129211019925 ) ) ;
#26 = DIRECTION ( 'NONE',  ( 3.491481338843133355E-15, -1.224646799147353207E-16, 1.000000000000000000 ) ) ;
#27 = FACE_OUTER_BOUND ( 'NONE', #21, .T. ) ;
#28 = CARTESIAN_POINT ( 'NONE',  ( 3.142333204958820651E-14, 0.5900000000000006350, 9.000000000000001776 ) ) ;
#29 = VERTEX_POINT ( 'NONE', #97 ) ;
#30 = DIRECTION ( 'NONE',  ( 0.0000000000000000000, 0.0000000000000000000, 1.000000000000000000 ) ) ;
#31 = APPROVAL_ROLE ( '' ) ;
#32 = ADVANCED_FACE ( 'NONE', ( #163 ), #154, .T. ) ;
#33 = CC_DESIGN_PERSON_AND_ORGANIZATION_ASSIGNMENT ( #221, #65, ( #35 ) ) ;
#34 = PERSON_AND_ORGANIZATION ( #174, #119 ) ;
#35 = SECURITY_CLASSIFICATION ( '', '', #203 ) ;
#36 = APPROVAL_DATE_TIME ( #37, #105 ) ;
#37 = DATE_AND_TIME ( #219, #189 ) ;
#38 = CARTESIAN_POINT ( 'NONE',  ( 1.237757246762482820E-15, -4.341467999572253225E-17, 0.3545077652262638157 ) ) ;
#39 = CARTESIAN_POINT ( 'NONE',  ( 0.0000000000000000000, 0.0000000000000000000, 0.0000000000000000000 ) ) ;
#40 = DIRECTION ( 'NONE',  ( 0.0000000000000000000, 1.000000000000000000, 0.0000000000000000000 ) ) ;
#41 = CIRCLE ( 'NONE', #170, 0.5500000000000000444 ) ;
#42 = ADVANCED_FACE ( 'NONE', ( #158, #198 ), #164, .T. ) ;
#43 = DIRECTION ( 'NONE',  ( 3.491481338843133355E-15, -1.224646799147353207E-16, 1.000000000000000000 ) ) ;
#44 = AXIS2_PLACEMENT_3D ( 'NONE', #86, #30, #62 ) ;
#45 = FACE_OUTER_BOUND ( 'NONE', #110, .T. ) ;
#46 = DIRECTION ( 'NONE',  ( -3.491481338843133355E-15, 1.224646799147353207E-16, -1.000000000000000000 ) ) ;
#47 = DATE_AND_TIME ( #101, #58 ) ;
#48 = PERSON_AND_ORGANIZATION_ROLE ( 'design_supplier' ) ;
#49 = CLOSED_SHELL ( 'NONE', ( #121, #173, #74, #42, #98 ) ) ;
#50 = AXIS2_PLACEMENT_3D ( 'NONE', #216, #26, #96 ) ;
#51 = EDGE_LOOP ( 'NONE', ( #162 ) ) ;
#52 = CARTESIAN_POINT ( 'NONE',  ( 1.047444401652940007E-13, -3.673940397442059178E-15, 30.00000000000000000 ) ) ;
#53 = DESIGN_CONTEXT ( 'detailed design', #139, 'design' ) ;
#54 = ORIENTED_EDGE ( 'NONE', *, *, #177, .T. ) ;
#55 = LOCAL_TIME ( 7, 15, 7.000000000000000000, #188 ) ;
#56 = VERTEX_POINT ( 'NONE', #83 ) ;
#57 = DIRECTION ( 'NONE',  ( 4.275831445896958607E-31, 1.000000000000000000, 1.224646799147353207E-16 ) ) ;
#58 = LOCAL_TIME ( 7, 15, 7.000000000000000000, #204 ) ;
#59 = APPLICATION_CONTEXT ( 'configuration controlled 3d designs of mechanical parts and assemblies' ) ;
#60 = FACE_BOUND ( 'NONE', #51, .T. ) ;
#61 = DIRECTION ( 'NONE',  ( 4.275831445896958607E-31, 1.000000000000000000, 1.224646799147353207E-16 ) ) ;
#62 = DIRECTION ( 'NONE',  ( 1.000000000000000000, 0.0000000000000000000, 0.0000000000000000000 ) ) ;
#63 = AXIS2_PLACEMENT_3D ( 'NONE', #195, #169, #61 ) ;
#64 = CIRCLE ( 'NONE', #194, 0.5899999999999988587 ) ;
#65 = PERSON_AND_ORGANIZATION_ROLE ( 'classification_officer' ) ;
#66 = PERSON_AND_ORGANIZATION ( #174, #119 ) ;
#67 = AXIS2_PLACEMENT_3D ( 'NONE', #130, #147, #200 ) ;
#68 = PERSON_AND_ORGANIZATION ( #174, #119 ) ;
#69 = FACE_OUTER_BOUND ( 'NONE', #88, .T. ) ;
#70 = EDGE_CURVE ( 'NONE', #146, #146, #41, .T. ) ;
#71 = DIRECTION ( 'NONE',  ( -3.491481338843133355E-15, 1.224646799147353207E-16, -1.000000000000000000 ) ) ;
#72 = EDGE_LOOP ( 'NONE', ( #196 ) ) ;
#73 = UNCERTAINTY_MEASURE_WITH_UNIT (LENGTH_MEASURE( 1.000000000000000082E-05 ), #128, 'distance_accuracy_value', 'NONE');
#74 = ADVANCED_FACE ( 'NONE', ( #69, #1 ), #144, .T. ) ;
#75 = DIRECTION ( 'NONE',  ( -3.264288041334304521E-31, -1.000000000000000000, -9.188154004114462552E-17 ) ) ;
#76 = DIRECTION ( 'NONE',  ( 0.0000000000000000000, 1.000000000000000000, 0.0000000000000000000 ) ) ;
#77 = DIRECTION ( 'NONE',  ( -3.491481338843133355E-15, 1.224646799147353207E-16, -1.000000000000000000 ) ) ;
#78 = DIRECTION ( 'NONE',  ( 3.264288041334304521E-31, 1.000000000000000000, 9.188154004114462552E-17 ) ) ;
#79 = MANIFOLD_SOLID_BREP ( 'Corps-Déplacer/Copier1[1]', #49 ) ;
#80 = VERTEX_POINT ( 'NONE', #172 ) ;
#81 = AXIS2_PLACEMENT_3D ( 'NONE', #25, #211, #112 ) ;
#82 = ADVANCED_BREP_SHAPE_REPRESENTATION ( '55370', ( #79, #156, #44 ), #14 ) ;
#83 = CARTESIAN_POINT ( 'NONE',  ( 1.040461438975253740E-13, 0.7499999999999962252, 29.80000000000000071 ) ) ;
#84 = MECHANICAL_CONTEXT ( 'NONE', #59, 'mechanical' ) ;
#85 = CALENDAR_DATE ( 2021, 8, 10 ) ;
#86 = CARTESIAN_POINT ( 'NONE',  ( 0.0000000000000000000, 0.0000000000000000000, 0.0000000000000000000 ) ) ;
#87 = CIRCLE ( 'NONE', #149, 0.7499999999999998890 ) ;
#88 = EDGE_LOOP ( 'NONE', ( #90 ) ) ;
#89 = EDGE_LOOP ( 'NONE', ( #3 ) ) ;
#90 = ORIENTED_EDGE ( 'NONE', *, *, #190, .F. ) ;
#91 = CLOSED_SHELL ( 'NONE', ( #32, #222, #186 ) ) ;
#92 = CC_DESIGN_APPROVAL ( #105, ( #35 ) ) ;
#93 = EDGE_LOOP ( 'NONE', ( #111 ) ) ;
#94 = CARTESIAN_POINT ( 'NONE',  ( 3.239091974119698265E-14, -1.136120526871814790E-15, 9.277128129211019925 ) ) ;
#95 = AXIS2_PLACEMENT_3D ( 'NONE', #113, #43, #215 ) ;
#96 = DIRECTION ( 'NONE',  ( -4.275831445896958607E-31, -1.000000000000000000, -1.224646799147353207E-16 ) ) ;
#97 = CARTESIAN_POINT ( 'NONE',  ( 3.142333204958820651E-14, 0.5900000000000006350, 9.000000000000001776 ) ) ;
#98 = ADVANCED_FACE ( 'NONE', ( #208 ), #123, .F. ) ;
#99 = CARTESIAN_POINT ( 'NONE',  ( 3.239091974119698265E-14, 0.7499999999999963363, 9.277128129211019925 ) ) ;
#100 = CC_DESIGN_SECURITY_CLASSIFICATION ( #35, ( #175 ) ) ;
#101 = CALENDAR_DATE ( 2021, 8, 10 ) ;
#102 = DATE_AND_TIME ( #132, #55 ) ;
#103 = SHAPE_DEFINITION_REPRESENTATION ( #116, #82 ) ;
#104 = AXIS2_PLACEMENT_3D ( 'NONE', #131, #77, #57 ) ;
#105 = APPROVAL ( #153, 'UNSPECIFIED' ) ;
#106 = APPROVAL_STATUS ( 'not_yet_approved' ) ;
#107 = AXIS2_PLACEMENT_3D ( 'NONE', #159, #5, #40 ) ;
#108 = ORIENTED_EDGE ( 'NONE', *, *, #17, .T. ) ;
#109 = ORIENTED_EDGE ( 'NONE', *, *, #201, .F. ) ;
#110 = EDGE_LOOP ( 'NONE', ( #197 ) ) ;
#111 = ORIENTED_EDGE ( 'NONE', *, *, #70, .F. ) ;
#112 = DIRECTION ( 'NONE',  ( 0.0000000000000000000, -1.000000000000000000, 0.0000000000000000000 ) ) ;
#113 = CARTESIAN_POINT ( 'NONE',  ( 3.142333204958820651E-14, -2.080180638672242497E-31, 9.000000000000001776 ) ) ;
#114 = FACE_OUTER_BOUND ( 'NONE', #22, .T. ) ;
#115 = CARTESIAN_POINT ( 'NONE',  ( 1.047444401652940007E-13, 0.5499999999999963807, 30.00000000000000000 ) ) ;
#116 = PRODUCT_DEFINITION_SHAPE ( 'NONE', 'NONE',  #20 ) ;
#117 = COORDINATED_UNIVERSAL_TIME_OFFSET ( 1, 0, .AHEAD. ) ;
#118 = COORDINATED_UNIVERSAL_TIME_OFFSET ( 1, 0, .AHEAD. ) ;
#119 = ORGANIZATION ( 'UNSPECIFIED', 'UNSPECIFIED', '' ) ;
#120 = APPLICATION_PROTOCOL_DEFINITION ( 'international standard', 'config_control_design', 1994, #139 ) ;
#121 = ADVANCED_FACE ( 'NONE', ( #27 ), #10, .F. ) ;
#122 = LOCAL_TIME ( 7, 15, 7.000000000000000000, #117 ) ;
#123 = PLANE ( 'NONE',  #63 ) ;
#124 = EDGE_LOOP ( 'NONE', ( #109 ) ) ;
#125 = DIRECTION ( 'NONE',  ( -3.491481338843133355E-15, 1.224646799147353207E-16, -1.000000000000000000 ) ) ;
#126 = DIRECTION ( 'NONE',  ( 3.491481338843133355E-15, -1.224646799147353207E-16, 1.000000000000000000 ) ) ;
#127 = CC_DESIGN_PERSON_AND_ORGANIZATION_ASSIGNMENT ( #68, #18, ( #19 ) ) ;
#128 =( LENGTH_UNIT ( ) NAMED_UNIT ( * ) SI_UNIT ( .MILLI., .METRE. ) );
#129 = CC_DESIGN_APPROVAL ( #209, ( #175 ) ) ;
#130 = CARTESIAN_POINT ( 'NONE',  ( 3.142333204958820651E-14, -1.102182119232617911E-15, 9.000000000000001776 ) ) ;
#131 = CARTESIAN_POINT ( 'NONE',  ( 0.0000000000000000000, 0.0000000000000000000, 0.0000000000000000000 ) ) ;
#132 = CALENDAR_DATE ( 2021, 8, 10 ) ;
#133 = DATE_AND_TIME ( #85, #161 ) ;
#134 = CC_DESIGN_DATE_AND_TIME_ASSIGNMENT ( #133, #191, ( #35 ) ) ;
#135 = APPROVAL_STATUS ( 'not_yet_approved' ) ;
#136 = DATE_TIME_ROLE ( 'creation_date' ) ;
#137 = AXIS2_PLACEMENT_3D ( 'NONE', #38, #126, #75 ) ;
#138 = DATE_AND_TIME ( #205, #122 ) ;
#139 = APPLICATION_CONTEXT ( 'configuration controlled 3d designs of mechanical parts and assemblies' ) ;
#140 = ORIENTED_EDGE ( 'NONE', *, *, #183, .F. ) ;
#141 = CC_DESIGN_DATE_AND_TIME_ASSIGNMENT ( #102, #136, ( #20 ) ) ;
#142 = DIRECTION ( 'NONE',  ( 4.275831445896959482E-31, 1.000000000000000000, 1.224646799147353207E-16 ) ) ;
#143 = CARTESIAN_POINT ( 'NONE',  ( 1.047444401652940007E-13, -3.673940397442059178E-15, 30.00000000000000000 ) ) ;
#144 = CYLINDRICAL_SURFACE ( 'NONE', #193, 0.7499999999999986677 ) ;
#145 = AXIS2_PLACEMENT_3D ( 'NONE', #94, #199, #212 ) ;
#146 = VERTEX_POINT ( 'NONE', #115 ) ;
#147 = DIRECTION ( 'NONE',  ( -3.491481338843133355E-15, 1.224646799147353207E-16, -1.000000000000000000 ) ) ;
#148 = PRODUCT_RELATED_PRODUCT_CATEGORY ( 'detail', '', ( #19 ) ) ;
#149 = AXIS2_PLACEMENT_3D ( 'NONE', #166, #46, #210 ) ;
#150 = VERTEX_POINT ( 'NONE', #99 ) ;
#151 = PLANE ( 'NONE',  #50 ) ;
#152 = PERSON_AND_ORGANIZATION ( #174, #119 ) ;
#153 = APPROVAL_STATUS ( 'not_yet_approved' ) ;
#154 = CONICAL_SURFACE ( 'NONE', #137, 0.5899999999999988587, 1.029744258676649649 ) ;
#155 = APPROVAL_ROLE ( '' ) ;
#156 = MANIFOLD_SOLID_BREP ( 'Corps-Déplacer/Copier1[2]', #91 ) ;
#157 = APPROVAL_DATE_TIME ( #138, #213 ) ;
#158 = FACE_OUTER_BOUND ( 'NONE', #124, .T. ) ;
#159 = CARTESIAN_POINT ( 'NONE',  ( 3.142333204958820651E-14, -1.102182119232617911E-15, 9.000000000000001776 ) ) ;
#160 = EDGE_LOOP ( 'NONE', ( #140 ) ) ;
#161 = LOCAL_TIME ( 7, 15, 7.000000000000000000, #15 ) ;
#162 = ORIENTED_EDGE ( 'NONE', *, *, #177, .F. ) ;
#163 = FACE_OUTER_BOUND ( 'NONE', #192, .T. ) ;
#164 = CONICAL_SURFACE ( 'NONE', #11, 0.5500000000000000444, 0.7853981633974510546 ) ;
#165 = APPROVAL_PERSON_ORGANIZATION ( #16, #105, #176 ) ;
#166 = CARTESIAN_POINT ( 'NONE',  ( 1.040461438975253740E-13, -3.649447461459112464E-15, 29.80000000000000071 ) ) ;
#167 = APPLICATION_PROTOCOL_DEFINITION ( 'international standard', 'config_control_design', 1994, #59 ) ;
#168 = CC_DESIGN_PERSON_AND_ORGANIZATION_ASSIGNMENT ( #34, #48, ( #175 ) ) ;
#169 = DIRECTION ( 'NONE',  ( -3.491481338843133355E-15, 1.224646799147353207E-16, -1.000000000000000000 ) ) ;
#170 = AXIS2_PLACEMENT_3D ( 'NONE', #52, #125, #76 ) ;
#171 = CONICAL_SURFACE ( 'NONE', #81, 0.7499999999999974465, 0.5235987755982902669 ) ;
#172 = CARTESIAN_POINT ( 'NONE',  ( 1.237757246762483017E-15, 0.5899999999999988587, 0.3545077652262638712 ) ) ;
#173 = ADVANCED_FACE ( 'NONE', ( #60, #12 ), #171, .T. ) ;
#174 = PERSON ( 'UNSPECIFIED', 'UNSPECIFIED', 'UNSPECIFIED', ('UNSPECIFIED'), ('UNSPECIFIED'), ('UNSPECIFIED') ) ;
#175 = PRODUCT_DEFINITION_FORMATION_WITH_SPECIFIED_SOURCE ( 'ANY', '', #19, .NOT_KNOWN. ) ;
#176 = APPROVAL_ROLE ( '' ) ;
#177 = EDGE_CURVE ( 'NONE', #29, #29, #8, .T. ) ;
#178 = DIRECTION ( 'NONE',  ( 0.0000000000000000000, 1.000000000000000000, 0.0000000000000000000 ) ) ;
#179 = EDGE_LOOP ( 'NONE', ( #4 ) ) ;
#180 = APPROVAL_PERSON_ORGANIZATION ( #66, #209, #155 ) ;
#181 =( NAMED_UNIT ( * ) PLANE_ANGLE_UNIT ( ) SI_UNIT ( $, .RADIAN. ) );
#182 = DIRECTION ( 'NONE',  ( -3.491481338843133355E-15, 1.224646799147353207E-16, -1.000000000000000000 ) ) ;
#183 = EDGE_CURVE ( 'NONE', #80, #80, #64, .T. ) ;
#184 = FACE_OUTER_BOUND ( 'NONE', #160, .T. ) ;
#185 = VERTEX_POINT ( 'NONE', #28 ) ;
#186 = ADVANCED_FACE ( 'NONE', ( #45 ), #151, .T. ) ;
#187 = PERSON_AND_ORGANIZATION ( #174, #119 ) ;
#188 = COORDINATED_UNIVERSAL_TIME_OFFSET ( 1, 0, .AHEAD. ) ;
#189 = LOCAL_TIME ( 7, 15, 7.000000000000000000, #118 ) ;
#190 = EDGE_CURVE ( 'NONE', #150, #150, #24, .T. ) ;
#191 = DATE_TIME_ROLE ( 'classification_date' ) ;
#192 = EDGE_LOOP ( 'NONE', ( #207 ) ) ;
#193 = AXIS2_PLACEMENT_3D ( 'NONE', #39, #71, #142 ) ;
#194 = AXIS2_PLACEMENT_3D ( 'NONE', #202, #182, #78 ) ;
#195 = CARTESIAN_POINT ( 'NONE',  ( 1.047444401652940007E-13, 4.124339402320052999E-33, 30.00000000000000000 ) ) ;
#196 = ORIENTED_EDGE ( 'NONE', *, *, #190, .T. ) ;
#197 = ORIENTED_EDGE ( 'NONE', *, *, #17, .F. ) ;
#198 = FACE_BOUND ( 'NONE', #89, .T. ) ;
#199 = DIRECTION ( 'NONE',  ( -3.491481338843133355E-15, 1.224646799147353207E-16, -1.000000000000000000 ) ) ;
#200 = DIRECTION ( 'NONE',  ( 0.0000000000000000000, 1.000000000000000000, 0.0000000000000000000 ) ) ;
#201 = EDGE_CURVE ( 'NONE', #56, #56, #87, .T. ) ;
#202 = CARTESIAN_POINT ( 'NONE',  ( 1.237757246762482820E-15, -4.341467999572253225E-17, 0.3545077652262638157 ) ) ;
#203 = SECURITY_CLASSIFICATION_LEVEL ( 'unclassified' ) ;
#204 = COORDINATED_UNIVERSAL_TIME_OFFSET ( 1, 0, .AHEAD. ) ;
#205 = CALENDAR_DATE ( 2021, 8, 10 ) ;
#206 = APPROVAL_DATE_TIME ( #47, #209 ) ;
#207 = ORIENTED_EDGE ( 'NONE', *, *, #183, .T. ) ;
#208 = FACE_OUTER_BOUND ( 'NONE', #93, .T. ) ;
#209 = APPROVAL ( #135, 'UNSPECIFIED' ) ;
#210 = DIRECTION ( 'NONE',  ( 0.0000000000000000000, 1.000000000000000000, 0.0000000000000000000 ) ) ;
#211 = DIRECTION ( 'NONE',  ( 3.491481338843133355E-15, -1.224646799147353207E-16, 1.000000000000000000 ) ) ;
#212 = DIRECTION ( 'NONE',  ( 0.0000000000000000000, 1.000000000000000000, 0.0000000000000000000 ) ) ;
#213 = APPROVAL ( #106, 'UNSPECIFIED' ) ;
#214 = CC_DESIGN_APPROVAL ( #213, ( #20 ) ) ;
#215 = DIRECTION ( 'NONE',  ( -4.275831445896958607E-31, -1.000000000000000000, -1.224646799147353207E-16 ) ) ;
#216 = CARTESIAN_POINT ( 'NONE',  ( 3.142333204958820651E-14, -2.080180638672242497E-31, 9.000000000000001776 ) ) ;
#217 = PERSON_AND_ORGANIZATION_ROLE ( 'creator' ) ;
#218 = APPROVAL_PERSON_ORGANIZATION ( #187, #213, #31 ) ;
#219 = CALENDAR_DATE ( 2021, 8, 10 ) ;
#220 = PERSON_AND_ORGANIZATION ( #174, #119 ) ;
#221 = PERSON_AND_ORGANIZATION ( #174, #119 ) ;
#222 = ADVANCED_FACE ( 'NONE', ( #184, #114 ), #9, .T. ) ;
#223 = DIRECTION ( 'NONE',  ( -3.491481338843133355E-15, 1.224646799147353207E-16, -1.000000000000000000 ) ) ;
ENDSEC;
END-ISO-10303-21;
