ISO-10303-21;
HEADER;
FILE_DESCRIPTION (( 'STEP AP203' ),
    '1' );
FILE_NAME ('55369.step',
    '2021-10-08T05:15:06',
    ( '' ),
    ( '' ),
    'SwSTEP 2.0',
    'SolidWorks 2019',
    '' );
FILE_SCHEMA (( 'CONFIG_CONTROL_DESIGN' ));
ENDSEC;

DATA;
#1 = CARTESIAN_POINT ( 'NONE',  ( 1.040461438975253740E-13, -3.649447461459112464E-15, 29.80000000000000071 ) ) ;
#2 = EDGE_CURVE ( 'NONE', #58, #58, #138, .T. ) ;
#3 = DIRECTION ( 'NONE',  ( 4.275831445896958607E-31, 1.000000000000000000, 1.224646799147353207E-16 ) ) ;
#4 = CONICAL_SURFACE ( 'NONE', #156, 0.5849999999999989653, 1.029744258676649649 ) ;
#5 = CALENDAR_DATE ( 2021, 8, 10 ) ;
#6 = FACE_OUTER_BOUND ( 'NONE', #72, .T. ) ;
#7 = PERSON_AND_ORGANIZATION ( #69, #59 ) ;
#8 = PERSON_AND_ORGANIZATION_ROLE ( 'design_owner' ) ;
#9 = EDGE_LOOP ( 'NONE', ( #144 ) ) ;
#10 =( NAMED_UNIT ( * ) PLANE_ANGLE_UNIT ( ) SI_UNIT ( $, .RADIAN. ) );
#11 = ORIENTED_EDGE ( 'NONE', *, *, #185, .T. ) ;
#12 = CARTESIAN_POINT ( 'NONE',  ( 0.0000000000000000000, 0.0000000000000000000, 0.0000000000000000000 ) ) ;
#13 = PRODUCT_RELATED_PRODUCT_CATEGORY ( 'detail', '', ( #155 ) ) ;
#14 = DATE_TIME_ROLE ( 'creation_date' ) ;
#15 = DATE_AND_TIME ( #153, #137 ) ;
#16 = APPROVAL_PERSON_ORGANIZATION ( #76, #44, #116 ) ;
#17 = AXIS2_PLACEMENT_3D ( 'NONE', #122, #180, #68 ) ;
#18 = DATE_AND_TIME ( #67, #35 ) ;
#19 = DIRECTION ( 'NONE',  ( 0.0000000000000000000, 1.000000000000000000, 0.0000000000000000000 ) ) ;
#20 = APPROVAL_PERSON_ORGANIZATION ( #7, #175, #194 ) ;
#21 = DIRECTION ( 'NONE',  ( 0.0000000000000000000, 1.000000000000000000, 0.0000000000000000000 ) ) ;
#22 = DIRECTION ( 'NONE',  ( -3.491481338843133355E-15, 1.224646799147353207E-16, -1.000000000000000000 ) ) ;
#23 = CARTESIAN_POINT ( 'NONE',  ( 0.0000000000000000000, 0.0000000000000000000, 0.0000000000000000000 ) ) ;
#24 = CARTESIAN_POINT ( 'NONE',  ( 1.047444401652940007E-13, -3.673940397442059178E-15, 30.00000000000000000 ) ) ;
#25 = EDGE_LOOP ( 'NONE', ( #28 ) ) ;
#26 = MECHANICAL_CONTEXT ( 'NONE', #91, 'mechanical' ) ;
#27 = APPROVAL ( #81, 'UNSPECIFIED' ) ;
#28 = ORIENTED_EDGE ( 'NONE', *, *, #110, .F. ) ;
#29 = APPROVAL_DATE_TIME ( #186, #27 ) ;
#30 = ORIENTED_EDGE ( 'NONE', *, *, #110, .T. ) ;
#31 = PERSON_AND_ORGANIZATION ( #69, #59 ) ;
#32 = PERSON_AND_ORGANIZATION ( #69, #59 ) ;
#33 = VERTEX_POINT ( 'NONE', #45 ) ;
#34 = CC_DESIGN_PERSON_AND_ORGANIZATION_ASSIGNMENT ( #154, #135, ( #189 ) ) ;
#35 = LOCAL_TIME ( 7, 15, 6.000000000000000000, #50 ) ;
#36 = CIRCLE ( 'NONE', #178, 0.7499999999999974465 ) ;
#37 = DIRECTION ( 'NONE',  ( -3.491481338843133355E-15, 1.224646799147353207E-16, -1.000000000000000000 ) ) ;
#38 = CONICAL_SURFACE ( 'NONE', #218, 0.7499999999999974465, 0.5235987755982921543 ) ;
#39 = FACE_OUTER_BOUND ( 'NONE', #97, .T. ) ;
#40 = FACE_OUTER_BOUND ( 'NONE', #60, .T. ) ;
#41 = DIRECTION ( 'NONE',  ( 4.275831445896959482E-31, 1.000000000000000000, 1.224646799147353207E-16 ) ) ;
#42 = DIRECTION ( 'NONE',  ( -4.275831445896958607E-31, -1.000000000000000000, -1.224646799147353207E-16 ) ) ;
#43 = CIRCLE ( 'NONE', #125, 0.5850000000000006306 ) ;
#44 = APPROVAL ( #169, 'UNSPECIFIED' ) ;
#45 = CARTESIAN_POINT ( 'NONE',  ( 3.142333204958820020E-14, 0.5849999999999996314, 9.000000000000000000 ) ) ;
#46 = APPROVAL_PERSON_ORGANIZATION ( #31, #27, #213 ) ;
#47 = PERSON_AND_ORGANIZATION_ROLE ( 'design_supplier' ) ;
#48 = ADVANCED_FACE ( 'NONE', ( #39 ), #4, .T. ) ;
#49 = DIRECTION ( 'NONE',  ( 1.000000000000000000, 0.0000000000000000000, 0.0000000000000000000 ) ) ;
#50 = COORDINATED_UNIVERSAL_TIME_OFFSET ( 1, 0, .AHEAD. ) ;
#51 = DIRECTION ( 'NONE',  ( 3.491481338843133355E-15, -1.224646799147353207E-16, 1.000000000000000000 ) ) ;
#52 = EDGE_CURVE ( 'NONE', #204, #204, #219, .T. ) ;
#53 = FACE_BOUND ( 'NONE', #57, .T. ) ;
#54 = AXIS2_PLACEMENT_3D ( 'NONE', #24, #179, #223 ) ;
#55 = DIRECTION ( 'NONE',  ( -3.491481338843133355E-15, 1.224646799147353207E-16, -1.000000000000000000 ) ) ;
#56 = DIRECTION ( 'NONE',  ( -3.491481338843133355E-15, 1.224646799147353207E-16, -1.000000000000000000 ) ) ;
#57 = EDGE_LOOP ( 'NONE', ( #162 ) ) ;
#58 = VERTEX_POINT ( 'NONE', #139 ) ;
#59 = ORGANIZATION ( 'UNSPECIFIED', 'UNSPECIFIED', '' ) ;
#60 = EDGE_LOOP ( 'NONE', ( #163 ) ) ;
#61 = CARTESIAN_POINT ( 'NONE',  ( 3.242115685655975138E-14, 0.7499999999999963363, 9.285788383248862132 ) ) ;
#62 = PERSON_AND_ORGANIZATION_ROLE ( 'creator' ) ;
#63 = APPROVAL_DATE_TIME ( #15, #44 ) ;
#64 = CC_DESIGN_PERSON_AND_ORGANIZATION_ASSIGNMENT ( #134, #166, ( #200 ) ) ;
#65 = CC_DESIGN_APPROVAL ( #44, ( #200 ) ) ;
#66 = APPLICATION_PROTOCOL_DEFINITION ( 'international standard', 'config_control_design', 1994, #91 ) ;
#67 = CALENDAR_DATE ( 2021, 8, 10 ) ;
#68 = DIRECTION ( 'NONE',  ( 3.292187939123485911E-31, 1.000000000000000000, 9.266685234918857698E-17 ) ) ;
#69 = PERSON ( 'UNSPECIFIED', 'UNSPECIFIED', 'UNSPECIFIED', ('UNSPECIFIED'), ('UNSPECIFIED'), ('UNSPECIFIED') ) ;
#70 = DIRECTION ( 'NONE',  ( 0.0000000000000000000, 1.000000000000000000, 0.0000000000000000000 ) ) ;
#71 = DIRECTION ( 'NONE',  ( 0.0000000000000000000, 1.000000000000000000, 0.0000000000000000000 ) ) ;
#72 = EDGE_LOOP ( 'NONE', ( #150 ) ) ;
#73 = LOCAL_TIME ( 7, 15, 6.000000000000000000, #173 ) ;
#74 = CARTESIAN_POINT ( 'NONE',  ( 3.242115685655975138E-14, -1.137181102110539637E-15, 9.285788383248862132 ) ) ;
#75 = CARTESIAN_POINT ( 'NONE',  ( 3.142333204958820020E-14, 4.386797364285923103E-33, 9.000000000000000000 ) ) ;
#76 = PERSON_AND_ORGANIZATION ( #69, #59 ) ;
#77 = ORIENTED_EDGE ( 'NONE', *, *, #2, .F. ) ;
#78 = APPROVAL_STATUS ( 'not_yet_approved' ) ;
#79 = CARTESIAN_POINT ( 'NONE',  ( 1.040461438975253740E-13, 0.7499999999999962252, 29.80000000000000071 ) ) ;
#80 = ORIENTED_EDGE ( 'NONE', *, *, #141, .F. ) ;
#81 = APPROVAL_STATUS ( 'not_yet_approved' ) ;
#82 = COORDINATED_UNIVERSAL_TIME_OFFSET ( 1, 0, .AHEAD. ) ;
#83 = SECURITY_CLASSIFICATION_LEVEL ( 'unclassified' ) ;
#84 = CC_DESIGN_PERSON_AND_ORGANIZATION_ASSIGNMENT ( #113, #8, ( #155 ) ) ;
#85 = DATE_TIME_ROLE ( 'classification_date' ) ;
#86 = CIRCLE ( 'NONE', #17, 0.5849999999999989653 ) ;
#87 = FACE_OUTER_BOUND ( 'NONE', #9, .T. ) ;
#88 = CLOSED_SHELL ( 'NONE', ( #48, #136, #121 ) ) ;
#89 = CARTESIAN_POINT ( 'NONE',  ( 3.242115685655975138E-14, -1.137181102110539637E-15, 9.285788383248862132 ) ) ;
#90 = CARTESIAN_POINT ( 'NONE',  ( 3.142333204958820020E-14, 4.386797364285923103E-33, 9.000000000000000000 ) ) ;
#91 = APPLICATION_CONTEXT ( 'configuration controlled 3d designs of mechanical parts and assemblies' ) ;
#92 = DIRECTION ( 'NONE',  ( -3.292187939123485911E-31, -1.000000000000000000, -9.266685234918857698E-17 ) ) ;
#93 = LOCAL_TIME ( 7, 15, 6.000000000000000000, #181 ) ;
#94 = FACE_BOUND ( 'NONE', #147, .T. ) ;
#95 = CALENDAR_DATE ( 2021, 8, 10 ) ;
#96 = UNCERTAINTY_MEASURE_WITH_UNIT (LENGTH_MEASURE( 1.000000000000000082E-05 ), #132, 'distance_accuracy_value', 'NONE');
#97 = EDGE_LOOP ( 'NONE', ( #11 ) ) ;
#98 = APPROVAL_DATE_TIME ( #145, #175 ) ;
#99 = CC_DESIGN_PERSON_AND_ORGANIZATION_ASSIGNMENT ( #32, #62, ( #120 ) ) ;
#100 = ADVANCED_FACE ( 'NONE', ( #40 ), #107, .F. ) ;
#101 = CONICAL_SURFACE ( 'NONE', #54, 0.5500000000000000444, 0.7853981633974510546 ) ;
#102 = APPLICATION_CONTEXT ( 'configuration controlled 3d designs of mechanical parts and assemblies' ) ;
#103 = CC_DESIGN_APPROVAL ( #27, ( #120 ) ) ;
#104 = FACE_OUTER_BOUND ( 'NONE', #170, .T. ) ;
#105 = AXIS2_PLACEMENT_3D ( 'NONE', #23, #55, #3 ) ;
#106 = FACE_OUTER_BOUND ( 'NONE', #129, .T. ) ;
#107 = PLANE ( 'NONE',  #197 ) ;
#108 = DIRECTION ( 'NONE',  ( 0.0000000000000000000, 1.000000000000000000, 0.0000000000000000000 ) ) ;
#109 = CC_DESIGN_SECURITY_CLASSIFICATION ( #189, ( #200 ) ) ;
#110 = EDGE_CURVE ( 'NONE', #174, #174, #171, .T. ) ;
#111 = DIRECTION ( 'NONE',  ( 0.0000000000000000000, -1.000000000000000000, 0.0000000000000000000 ) ) ;
#112 = EDGE_LOOP ( 'NONE', ( #183 ) ) ;
#113 = PERSON_AND_ORGANIZATION ( #69, #59 ) ;
#114 = APPLICATION_PROTOCOL_DEFINITION ( 'international standard', 'config_control_design', 1994, #102 ) ;
#115 = PRODUCT_DEFINITION_SHAPE ( 'NONE', 'NONE',  #120 ) ;
#116 = APPROVAL_ROLE ( '' ) ;
#117 = AXIS2_PLACEMENT_3D ( 'NONE', #1, #56, #70 ) ;
#118 = DATE_AND_TIME ( #133, #73 ) ;
#119 = ADVANCED_FACE ( 'NONE', ( #140, #53 ), #101, .T. ) ;
#120 = PRODUCT_DEFINITION ( 'UNKNOWN', '', #200, #157 ) ;
#121 = ADVANCED_FACE ( 'NONE', ( #104 ), #192, .T. ) ;
#122 = CARTESIAN_POINT ( 'NONE',  ( 1.227267778569580537E-15, -4.304675897880963184E-17, 0.3515034621311259877 ) ) ;
#123 = CARTESIAN_POINT ( 'NONE',  ( 1.047444401652940007E-13, -3.673940397442059178E-15, 30.00000000000000000 ) ) ;
#124 = SHAPE_DEFINITION_REPRESENTATION ( #115, #168 ) ;
#125 = AXIS2_PLACEMENT_3D ( 'NONE', #209, #142, #71 ) ;
#126 = CYLINDRICAL_SURFACE ( 'NONE', #187, 0.7499999999999986677 ) ;
#127 = ORIENTED_EDGE ( 'NONE', *, *, #190, .F. ) ;
#128 = DIRECTION ( 'NONE',  ( 4.275831445896958607E-31, 1.000000000000000000, 1.224646799147353207E-16 ) ) ;
#129 = EDGE_LOOP ( 'NONE', ( #211 ) ) ;
#130 = DIRECTION ( 'NONE',  ( -3.491481338843133355E-15, 1.224646799147353207E-16, -1.000000000000000000 ) ) ;
#131 = AXIS2_PLACEMENT_3D ( 'NONE', #12, #199, #49 ) ;
#132 =( LENGTH_UNIT ( ) NAMED_UNIT ( * ) SI_UNIT ( .MILLI., .METRE. ) );
#133 = CALENDAR_DATE ( 2021, 8, 10 ) ;
#134 = PERSON_AND_ORGANIZATION ( #69, #59 ) ;
#135 = PERSON_AND_ORGANIZATION_ROLE ( 'classification_officer' ) ;
#136 = ADVANCED_FACE ( 'NONE', ( #6, #106 ), #161, .T. ) ;
#137 = LOCAL_TIME ( 7, 15, 6.000000000000000000, #82 ) ;
#138 = CIRCLE ( 'NONE', #193, 0.5850000000000006306 ) ;
#139 = CARTESIAN_POINT ( 'NONE',  ( 3.142333204958820020E-14, 0.5849999999999996314, 9.000000000000000000 ) ) ;
#140 = FACE_OUTER_BOUND ( 'NONE', #25, .T. ) ;
#141 = EDGE_CURVE ( 'NONE', #33, #33, #43, .T. ) ;
#142 = DIRECTION ( 'NONE',  ( -3.491481338843133355E-15, 1.224646799147353207E-16, -1.000000000000000000 ) ) ;
#143 = CARTESIAN_POINT ( 'NONE',  ( 3.142333204958820020E-14, -1.102182119232617714E-15, 9.000000000000000000 ) ) ;
#144 = ORIENTED_EDGE ( 'NONE', *, *, #190, .T. ) ;
#145 = DATE_AND_TIME ( #5, #93 ) ;
#146 = DIRECTION ( 'NONE',  ( 3.491481338843133355E-15, -1.224646799147353207E-16, 1.000000000000000000 ) ) ;
#147 = EDGE_LOOP ( 'NONE', ( #77 ) ) ;
#148 = MANIFOLD_SOLID_BREP ( 'Corps-Déplacer/Copier1[2]', #88 ) ;
#149 = VERTEX_POINT ( 'NONE', #152 ) ;
#150 = ORIENTED_EDGE ( 'NONE', *, *, #185, .F. ) ;
#151 = CC_DESIGN_PERSON_AND_ORGANIZATION_ASSIGNMENT ( #202, #47, ( #200 ) ) ;
#152 = CARTESIAN_POINT ( 'NONE',  ( 1.227267778569580734E-15, 0.5849999999999989653, 0.3515034621311260432 ) ) ;
#153 = CALENDAR_DATE ( 2021, 8, 10 ) ;
#154 = PERSON_AND_ORGANIZATION ( #69, #59 ) ;
#155 = PRODUCT ( '55369', '55369', '', ( #26 ) ) ;
#156 = AXIS2_PLACEMENT_3D ( 'NONE', #196, #177, #92 ) ;
#157 = DESIGN_CONTEXT ( 'detailed design', #102, 'design' ) ;
#158 = DIRECTION ( 'NONE',  ( -3.491481338843133355E-15, 1.224646799147353207E-16, -1.000000000000000000 ) ) ;
#159 =( GEOMETRIC_REPRESENTATION_CONTEXT ( 3 ) GLOBAL_UNCERTAINTY_ASSIGNED_CONTEXT ( ( #96 ) ) GLOBAL_UNIT_ASSIGNED_CONTEXT ( ( #132, #10, #172 ) ) REPRESENTATION_CONTEXT ( 'NONE', 'WORKASPACE' ) );
#160 = CARTESIAN_POINT ( 'NONE',  ( 0.0000000000000000000, 0.0000000000000000000, 0.0000000000000000000 ) ) ;
#161 = CYLINDRICAL_SURFACE ( 'NONE', #105, 0.5849999999999998535 ) ;
#162 = ORIENTED_EDGE ( 'NONE', *, *, #52, .T. ) ;
#163 = ORIENTED_EDGE ( 'NONE', *, *, #52, .F. ) ;
#164 = PLANE ( 'NONE',  #207 ) ;
#165 = ADVANCED_FACE ( 'NONE', ( #94, #87 ), #38, .T. ) ;
#166 = PERSON_AND_ORGANIZATION_ROLE ( 'creator' ) ;
#167 = EDGE_LOOP ( 'NONE', ( #30 ) ) ;
#168 = ADVANCED_BREP_SHAPE_REPRESENTATION ( '55369', ( #220, #148, #131 ), #159 ) ;
#169 = APPROVAL_STATUS ( 'not_yet_approved' ) ;
#170 = EDGE_LOOP ( 'NONE', ( #80 ) ) ;
#171 = CIRCLE ( 'NONE', #117, 0.7499999999999998890 ) ;
#172 =( NAMED_UNIT ( * ) SI_UNIT ( $, .STERADIAN. ) SOLID_ANGLE_UNIT ( ) );
#173 = COORDINATED_UNIVERSAL_TIME_OFFSET ( 1, 0, .AHEAD. ) ;
#174 = VERTEX_POINT ( 'NONE', #79 ) ;
#175 = APPROVAL ( #78, 'UNSPECIFIED' ) ;
#176 = ADVANCED_FACE ( 'NONE', ( #191, #195 ), #126, .T. ) ;
#177 = DIRECTION ( 'NONE',  ( 3.491481338843133355E-15, -1.224646799147353207E-16, 1.000000000000000000 ) ) ;
#178 = AXIS2_PLACEMENT_3D ( 'NONE', #74, #130, #108 ) ;
#179 = DIRECTION ( 'NONE',  ( -3.491481338843133355E-15, 1.224646799147353207E-16, -1.000000000000000000 ) ) ;
#180 = DIRECTION ( 'NONE',  ( -3.491481338843133355E-15, 1.224646799147353207E-16, -1.000000000000000000 ) ) ;
#181 = COORDINATED_UNIVERSAL_TIME_OFFSET ( 1, 0, .AHEAD. ) ;
#182 = FACE_OUTER_BOUND ( 'NONE', #112, .T. ) ;
#183 = ORIENTED_EDGE ( 'NONE', *, *, #2, .T. ) ;
#184 = CC_DESIGN_APPROVAL ( #175, ( #189 ) ) ;
#185 = EDGE_CURVE ( 'NONE', #149, #149, #86, .T. ) ;
#186 = DATE_AND_TIME ( #95, #214 ) ;
#187 = AXIS2_PLACEMENT_3D ( 'NONE', #160, #206, #41 ) ;
#188 = AXIS2_PLACEMENT_3D ( 'NONE', #123, #22, #21 ) ;
#189 = SECURITY_CLASSIFICATION ( '', '', #83 ) ;
#190 = EDGE_CURVE ( 'NONE', #215, #215, #36, .T. ) ;
#191 = FACE_OUTER_BOUND ( 'NONE', #208, .T. ) ;
#192 = PLANE ( 'NONE',  #221 ) ;
#193 = AXIS2_PLACEMENT_3D ( 'NONE', #143, #37, #19 ) ;
#194 = APPROVAL_ROLE ( '' ) ;
#195 = FACE_OUTER_BOUND ( 'NONE', #167, .T. ) ;
#196 = CARTESIAN_POINT ( 'NONE',  ( 1.227267778569580537E-15, -4.304675897880963184E-17, 0.3515034621311259877 ) ) ;
#197 = AXIS2_PLACEMENT_3D ( 'NONE', #205, #158, #128 ) ;
#198 = CC_DESIGN_DATE_AND_TIME_ASSIGNMENT ( #18, #85, ( #189 ) ) ;
#199 = DIRECTION ( 'NONE',  ( 0.0000000000000000000, 0.0000000000000000000, 1.000000000000000000 ) ) ;
#200 = PRODUCT_DEFINITION_FORMATION_WITH_SPECIFIED_SOURCE ( 'ANY', '', #155, .NOT_KNOWN. ) ;
#201 = CC_DESIGN_DATE_AND_TIME_ASSIGNMENT ( #118, #14, ( #120 ) ) ;
#202 = PERSON_AND_ORGANIZATION ( #69, #59 ) ;
#203 = CLOSED_SHELL ( 'NONE', ( #212, #165, #176, #119, #100 ) ) ;
#204 = VERTEX_POINT ( 'NONE', #217 ) ;
#205 = CARTESIAN_POINT ( 'NONE',  ( 1.047444401652940007E-13, 4.124339402320052999E-33, 30.00000000000000000 ) ) ;
#206 = DIRECTION ( 'NONE',  ( -3.491481338843133355E-15, 1.224646799147353207E-16, -1.000000000000000000 ) ) ;
#207 = AXIS2_PLACEMENT_3D ( 'NONE', #75, #146, #210 ) ;
#208 = EDGE_LOOP ( 'NONE', ( #127 ) ) ;
#209 = CARTESIAN_POINT ( 'NONE',  ( 3.142333204958820020E-14, -1.102182119232617714E-15, 9.000000000000000000 ) ) ;
#210 = DIRECTION ( 'NONE',  ( -4.275831445896958607E-31, -1.000000000000000000, -1.224646799147353207E-16 ) ) ;
#211 = ORIENTED_EDGE ( 'NONE', *, *, #141, .T. ) ;
#212 = ADVANCED_FACE ( 'NONE', ( #182 ), #164, .F. ) ;
#213 = APPROVAL_ROLE ( '' ) ;
#214 = LOCAL_TIME ( 7, 15, 6.000000000000000000, #216 ) ;
#215 = VERTEX_POINT ( 'NONE', #61 ) ;
#216 = COORDINATED_UNIVERSAL_TIME_OFFSET ( 1, 0, .AHEAD. ) ;
#217 = CARTESIAN_POINT ( 'NONE',  ( 1.047444401652940007E-13, 0.5499999999999963807, 30.00000000000000000 ) ) ;
#218 = AXIS2_PLACEMENT_3D ( 'NONE', #89, #51, #111 ) ;
#219 = CIRCLE ( 'NONE', #188, 0.5500000000000000444 ) ;
#220 = MANIFOLD_SOLID_BREP ( 'Corps-Déplacer/Copier1[1]', #203 ) ;
#221 = AXIS2_PLACEMENT_3D ( 'NONE', #90, #222, #42 ) ;
#222 = DIRECTION ( 'NONE',  ( 3.491481338843133355E-15, -1.224646799147353207E-16, 1.000000000000000000 ) ) ;
#223 = DIRECTION ( 'NONE',  ( 0.0000000000000000000, 1.000000000000000000, 0.0000000000000000000 ) ) ;
ENDSEC;
END-ISO-10303-21;
