ISO-10303-21;
HEADER;
FILE_DESCRIPTION (( 'STEP AP203' ),
    '1' );
FILE_NAME ('55368.step',
    '2021-10-08T05:15:05',
    ( '' ),
    ( '' ),
    'SwSTEP 2.0',
    'SolidWorks 2019',
    '' );
FILE_SCHEMA (( 'CONFIG_CONTROL_DESIGN' ));
ENDSEC;

DATA;
#1 = DIRECTION ( 'NONE',  ( 0.0000000000000000000, 1.000000000000000000, 0.0000000000000000000 ) ) ;
#2 = CC_DESIGN_SECURITY_CLASSIFICATION ( #95, ( #129 ) ) ;
#3 = PLANE ( 'NONE',  #42 ) ;
#4 = ORIENTED_EDGE ( 'NONE', *, *, #134, .T. ) ;
#5 = FACE_OUTER_BOUND ( 'NONE', #135, .T. ) ;
#6 = CONICAL_SURFACE ( 'NONE', #154, 0.7499999999999974465, 0.5235987755982928205 ) ;
#7 = VERTEX_POINT ( 'NONE', #177 ) ;
#8 = APPLICATION_PROTOCOL_DEFINITION ( 'international standard', 'config_control_design', 1994, #219 ) ;
#9 = DATE_AND_TIME ( #58, #109 ) ;
#10 = AXIS2_PLACEMENT_3D ( 'NONE', #82, #156, #212 ) ;
#11 = ADVANCED_BREP_SHAPE_REPRESENTATION ( '55368', ( #132, #63, #50 ), #57 ) ;
#12 = PERSON_AND_ORGANIZATION ( #187, #13 ) ;
#13 = ORGANIZATION ( 'UNSPECIFIED', 'UNSPECIFIED', '' ) ;
#14 = ORIENTED_EDGE ( 'NONE', *, *, #37, .F. ) ;
#15 = EDGE_LOOP ( 'NONE', ( #102 ) ) ;
#16 = AXIS2_PLACEMENT_3D ( 'NONE', #115, #169, #1 ) ;
#17 = EDGE_LOOP ( 'NONE', ( #29 ) ) ;
#18 = DIRECTION ( 'NONE',  ( 4.275831445896958607E-31, 1.000000000000000000, 1.224646799147353207E-16 ) ) ;
#19 = CC_DESIGN_APPROVAL ( #148, ( #129 ) ) ;
#20 = PLANE ( 'NONE',  #10 ) ;
#21 = PRODUCT ( '55368', '55368', '', ( #43 ) ) ;
#22 = CARTESIAN_POINT ( 'NONE',  ( 0.0000000000000000000, 0.0000000000000000000, 0.0000000000000000000 ) ) ;
#23 = CC_DESIGN_PERSON_AND_ORGANIZATION_ASSIGNMENT ( #90, #216, ( #129 ) ) ;
#24 = CARTESIAN_POINT ( 'NONE',  ( 1.047444401652940007E-13, 4.124339402320052999E-33, 30.00000000000000000 ) ) ;
#25 = DIRECTION ( 'NONE',  ( -3.491481338843133355E-15, 1.224646799147353207E-16, -1.000000000000000000 ) ) ;
#26 =( NAMED_UNIT ( * ) SI_UNIT ( $, .STERADIAN. ) SOLID_ANGLE_UNIT ( ) );
#27 =( LENGTH_UNIT ( ) NAMED_UNIT ( * ) SI_UNIT ( .MILLI., .METRE. ) );
#28 = COORDINATED_UNIVERSAL_TIME_OFFSET ( 1, 0, .AHEAD. ) ;
#29 = ORIENTED_EDGE ( 'NONE', *, *, #172, .T. ) ;
#30 = DATE_AND_TIME ( #65, #76 ) ;
#31 = ORIENTED_EDGE ( 'NONE', *, *, #128, .T. ) ;
#32 = CONICAL_SURFACE ( 'NONE', #140, 0.5500000000000000444, 0.7853981633974510546 ) ;
#33 = EDGE_LOOP ( 'NONE', ( #14 ) ) ;
#34 = DIRECTION ( 'NONE',  ( -3.491481338843133355E-15, 1.224646799147353207E-16, -1.000000000000000000 ) ) ;
#35 = FACE_OUTER_BOUND ( 'NONE', #189, .T. ) ;
#36 = DIRECTION ( 'NONE',  ( -3.491481338843133355E-15, 1.224646799147353207E-16, -1.000000000000000000 ) ) ;
#37 = EDGE_CURVE ( 'NONE', #192, #192, #117, .T. ) ;
#38 = EDGE_LOOP ( 'NONE', ( #4 ) ) ;
#39 =( NAMED_UNIT ( * ) PLANE_ANGLE_UNIT ( ) SI_UNIT ( $, .RADIAN. ) );
#40 = DIRECTION ( 'NONE',  ( 0.0000000000000000000, 1.000000000000000000, 0.0000000000000000000 ) ) ;
#41 = CARTESIAN_POINT ( 'NONE',  ( 3.142333204958820020E-14, -1.102182119232617714E-15, 9.000000000000000000 ) ) ;
#42 = AXIS2_PLACEMENT_3D ( 'NONE', #24, #83, #18 ) ;
#43 = MECHANICAL_CONTEXT ( 'NONE', #98, 'mechanical' ) ;
#44 = CONICAL_SURFACE ( 'NONE', #112, 0.5799999999999989608, 1.029744258676649649 ) ;
#45 = APPROVAL_DATE_TIME ( #30, #148 ) ;
#46 = COORDINATED_UNIVERSAL_TIME_OFFSET ( 1, 0, .AHEAD. ) ;
#47 = APPROVAL_DATE_TIME ( #201, #66 ) ;
#48 = CALENDAR_DATE ( 2021, 8, 10 ) ;
#49 = DIRECTION ( 'NONE',  ( 3.491481338843133355E-15, -1.224646799147353207E-16, 1.000000000000000000 ) ) ;
#50 = AXIS2_PLACEMENT_3D ( 'NONE', #107, #88, #211 ) ;
#51 = CARTESIAN_POINT ( 'NONE',  ( 0.0000000000000000000, 0.0000000000000000000, 0.0000000000000000000 ) ) ;
#52 = CYLINDRICAL_SURFACE ( 'NONE', #200, 0.5799999999999995159 ) ;
#53 = FACE_BOUND ( 'NONE', #91, .T. ) ;
#54 = DIRECTION ( 'NONE',  ( 0.0000000000000000000, 1.000000000000000000, 0.0000000000000000000 ) ) ;
#55 = DATE_AND_TIME ( #157, #195 ) ;
#56 = CARTESIAN_POINT ( 'NONE',  ( 1.216778310376678057E-15, 0.5799999999999989608, 0.3484991590359882152 ) ) ;
#57 =( GEOMETRIC_REPRESENTATION_CONTEXT ( 3 ) GLOBAL_UNCERTAINTY_ASSIGNED_CONTEXT ( ( #223 ) ) GLOBAL_UNIT_ASSIGNED_CONTEXT ( ( #27, #39, #26 ) ) REPRESENTATION_CONTEXT ( 'NONE', 'WORKASPACE' ) );
#58 = CALENDAR_DATE ( 2021, 8, 10 ) ;
#59 = DIRECTION ( 'NONE',  ( 0.0000000000000000000, -1.000000000000000000, 0.0000000000000000000 ) ) ;
#60 = CARTESIAN_POINT ( 'NONE',  ( 3.245139397192253274E-14, -1.138241677349264484E-15, 9.294448637286707893 ) ) ;
#61 = CC_DESIGN_PERSON_AND_ORGANIZATION_ASSIGNMENT ( #139, #190, ( #100 ) ) ;
#62 = DATE_TIME_ROLE ( 'creation_date' ) ;
#63 = MANIFOLD_SOLID_BREP ( 'Corps-Déplacer/Copier1[2]', #158 ) ;
#64 = AXIS2_PLACEMENT_3D ( 'NONE', #209, #49, #113 ) ;
#65 = CALENDAR_DATE ( 2021, 8, 10 ) ;
#66 = APPROVAL ( #218, 'UNSPECIFIED' ) ;
#67 = FACE_OUTER_BOUND ( 'NONE', #222, .T. ) ;
#68 = DIRECTION ( 'NONE',  ( -3.491481338843133355E-15, 1.224646799147353207E-16, -1.000000000000000000 ) ) ;
#69 = ORIENTED_EDGE ( 'NONE', *, *, #193, .T. ) ;
#70 = PLANE ( 'NONE',  #64 ) ;
#71 = DIRECTION ( 'NONE',  ( 0.0000000000000000000, 1.000000000000000000, 0.0000000000000000000 ) ) ;
#72 = APPROVAL_STATUS ( 'not_yet_approved' ) ;
#73 = VERTEX_POINT ( 'NONE', #123 ) ;
#74 = ADVANCED_FACE ( 'NONE', ( #171 ), #3, .F. ) ;
#75 = DIRECTION ( 'NONE',  ( -3.491481338843133355E-15, 1.224646799147353207E-16, -1.000000000000000000 ) ) ;
#76 = LOCAL_TIME ( 7, 15, 5.000000000000000000, #28 ) ;
#77 = PERSON_AND_ORGANIZATION_ROLE ( 'design_supplier' ) ;
#78 = AXIS2_PLACEMENT_3D ( 'NONE', #96, #173, #202 ) ;
#79 = ORIENTED_EDGE ( 'NONE', *, *, #217, .T. ) ;
#80 = CARTESIAN_POINT ( 'NONE',  ( 3.142333204958820020E-14, -1.102182119232617714E-15, 9.000000000000000000 ) ) ;
#81 = FACE_OUTER_BOUND ( 'NONE', #38, .T. ) ;
#82 = CARTESIAN_POINT ( 'NONE',  ( 3.142333204958820020E-14, 4.349303369719371599E-33, 9.000000000000000000 ) ) ;
#83 = DIRECTION ( 'NONE',  ( -3.491481338843133355E-15, 1.224646799147353207E-16, -1.000000000000000000 ) ) ;
#84 = VERTEX_POINT ( 'NONE', #194 ) ;
#85 = PERSON_AND_ORGANIZATION ( #187, #13 ) ;
#86 = APPROVAL_ROLE ( '' ) ;
#87 = CIRCLE ( 'NONE', #136, 0.5799999999999999600 ) ;
#88 = DIRECTION ( 'NONE',  ( 0.0000000000000000000, 0.0000000000000000000, 1.000000000000000000 ) ) ;
#89 = AXIS2_PLACEMENT_3D ( 'NONE', #51, #34, #97 ) ;
#90 = PERSON_AND_ORGANIZATION ( #187, #13 ) ;
#91 = EDGE_LOOP ( 'NONE', ( #184 ) ) ;
#92 = ORIENTED_EDGE ( 'NONE', *, *, #128, .F. ) ;
#93 = ADVANCED_FACE ( 'NONE', ( #149, #53 ), #32, .T. ) ;
#94 = PERSON_AND_ORGANIZATION_ROLE ( 'classification_officer' ) ;
#95 = SECURITY_CLASSIFICATION ( '', '', #108 ) ;
#96 = CARTESIAN_POINT ( 'NONE',  ( 1.216778310376677859E-15, -4.267883796189673143E-17, 0.3484991590359881597 ) ) ;
#97 = DIRECTION ( 'NONE',  ( 4.275831445896959482E-31, 1.000000000000000000, 1.224646799147353207E-16 ) ) ;
#98 = APPLICATION_CONTEXT ( 'configuration controlled 3d designs of mechanical parts and assemblies' ) ;
#99 = DIRECTION ( 'NONE',  ( -3.491481338843133355E-15, 1.224646799147353207E-16, -1.000000000000000000 ) ) ;
#100 = PRODUCT_DEFINITION ( 'UNKNOWN', '', #129, #168 ) ;
#101 = EDGE_LOOP ( 'NONE', ( #150 ) ) ;
#102 = ORIENTED_EDGE ( 'NONE', *, *, #172, .F. ) ;
#103 = CIRCLE ( 'NONE', #16, 0.7499999999999998890 ) ;
#104 = DIRECTION ( 'NONE',  ( 3.491481338843133355E-15, -1.224646799147353207E-16, 1.000000000000000000 ) ) ;
#105 = CC_DESIGN_PERSON_AND_ORGANIZATION_ASSIGNMENT ( #110, #94, ( #95 ) ) ;
#106 = CC_DESIGN_APPROVAL ( #179, ( #100 ) ) ;
#107 = CARTESIAN_POINT ( 'NONE',  ( 0.0000000000000000000, 0.0000000000000000000, 0.0000000000000000000 ) ) ;
#108 = SECURITY_CLASSIFICATION_LEVEL ( 'unclassified' ) ;
#109 = LOCAL_TIME ( 7, 15, 5.000000000000000000, #175 ) ;
#110 = PERSON_AND_ORGANIZATION ( #187, #13 ) ;
#111 = ADVANCED_FACE ( 'NONE', ( #81 ), #44, .T. ) ;
#112 = AXIS2_PLACEMENT_3D ( 'NONE', #147, #153, #188 ) ;
#113 = DIRECTION ( 'NONE',  ( -4.275831445896958607E-31, -1.000000000000000000, -1.224646799147353207E-16 ) ) ;
#114 = EDGE_LOOP ( 'NONE', ( #133 ) ) ;
#115 = CARTESIAN_POINT ( 'NONE',  ( 1.040461438975253740E-13, -3.649447461459112464E-15, 29.80000000000000071 ) ) ;
#116 = CARTESIAN_POINT ( 'NONE',  ( 1.047444401652940007E-13, -3.673940397442059178E-15, 30.00000000000000000 ) ) ;
#117 = CIRCLE ( 'NONE', #207, 0.5500000000000000444 ) ;
#118 = FACE_OUTER_BOUND ( 'NONE', #101, .T. ) ;
#119 = CC_DESIGN_DATE_AND_TIME_ASSIGNMENT ( #167, #163, ( #95 ) ) ;
#120 = FACE_BOUND ( 'NONE', #205, .T. ) ;
#121 = APPROVAL_DATE_TIME ( #55, #179 ) ;
#122 = CARTESIAN_POINT ( 'NONE',  ( 1.047444401652940007E-13, 0.5499999999999963807, 30.00000000000000000 ) ) ;
#123 = CARTESIAN_POINT ( 'NONE',  ( 3.142333204958820020E-14, 0.5799999999999989608, 9.000000000000000000 ) ) ;
#124 = AXIS2_PLACEMENT_3D ( 'NONE', #60, #25, #40 ) ;
#125 = CC_DESIGN_DATE_AND_TIME_ASSIGNMENT ( #9, #62, ( #100 ) ) ;
#126 = APPROVAL_STATUS ( 'not_yet_approved' ) ;
#127 = PERSON_AND_ORGANIZATION ( #187, #13 ) ;
#128 = EDGE_CURVE ( 'NONE', #142, #142, #166, .T. ) ;
#129 = PRODUCT_DEFINITION_FORMATION_WITH_SPECIFIED_SOURCE ( 'ANY', '', #21, .NOT_KNOWN. ) ;
#130 = EDGE_LOOP ( 'NONE', ( #69 ) ) ;
#131 = DIRECTION ( 'NONE',  ( -3.491481338843133355E-15, 1.224646799147353207E-16, -1.000000000000000000 ) ) ;
#132 = MANIFOLD_SOLID_BREP ( 'Corps-Déplacer/Copier1[1]', #220 ) ;
#133 = ORIENTED_EDGE ( 'NONE', *, *, #134, .F. ) ;
#134 = EDGE_CURVE ( 'NONE', #178, #178, #213, .T. ) ;
#135 = EDGE_LOOP ( 'NONE', ( #79 ) ) ;
#136 = AXIS2_PLACEMENT_3D ( 'NONE', #41, #75, #138 ) ;
#137 = PERSON_AND_ORGANIZATION_ROLE ( 'design_owner' ) ;
#138 = DIRECTION ( 'NONE',  ( 0.0000000000000000000, 1.000000000000000000, 0.0000000000000000000 ) ) ;
#139 = PERSON_AND_ORGANIZATION ( #187, #13 ) ;
#140 = AXIS2_PLACEMENT_3D ( 'NONE', #116, #68, #71 ) ;
#141 = ADVANCED_FACE ( 'NONE', ( #185, #5 ), #52, .T. ) ;
#142 = VERTEX_POINT ( 'NONE', #159 ) ;
#143 = AXIS2_PLACEMENT_3D ( 'NONE', #80, #131, #152 ) ;
#144 = PERSON_AND_ORGANIZATION ( #187, #13 ) ;
#145 = CALENDAR_DATE ( 2021, 8, 10 ) ;
#146 = CIRCLE ( 'NONE', #124, 0.7499999999999974465 ) ;
#147 = CARTESIAN_POINT ( 'NONE',  ( 1.216778310376677859E-15, -4.267883796189673143E-17, 0.3484991590359881597 ) ) ;
#148 = APPROVAL ( #126, 'UNSPECIFIED' ) ;
#149 = FACE_OUTER_BOUND ( 'NONE', #15, .T. ) ;
#150 = ORIENTED_EDGE ( 'NONE', *, *, #217, .F. ) ;
#151 = ADVANCED_FACE ( 'NONE', ( #118 ), #70, .T. ) ;
#152 = DIRECTION ( 'NONE',  ( 0.0000000000000000000, 1.000000000000000000, 0.0000000000000000000 ) ) ;
#153 = DIRECTION ( 'NONE',  ( 3.491481338843133355E-15, -1.224646799147353207E-16, 1.000000000000000000 ) ) ;
#154 = AXIS2_PLACEMENT_3D ( 'NONE', #191, #104, #59 ) ;
#155 = FACE_OUTER_BOUND ( 'NONE', #130, .T. ) ;
#156 = DIRECTION ( 'NONE',  ( 3.491481338843133355E-15, -1.224646799147353207E-16, 1.000000000000000000 ) ) ;
#157 = CALENDAR_DATE ( 2021, 8, 10 ) ;
#158 = CLOSED_SHELL ( 'NONE', ( #111, #141, #151 ) ) ;
#159 = CARTESIAN_POINT ( 'NONE',  ( 3.142333204958820020E-14, 0.5799999999999989608, 9.000000000000000000 ) ) ;
#160 = CC_DESIGN_PERSON_AND_ORGANIZATION_ASSIGNMENT ( #127, #77, ( #129 ) ) ;
#161 = PERSON_AND_ORGANIZATION ( #187, #13 ) ;
#162 = PRODUCT_DEFINITION_SHAPE ( 'NONE', 'NONE',  #100 ) ;
#163 = DATE_TIME_ROLE ( 'classification_date' ) ;
#164 = COORDINATED_UNIVERSAL_TIME_OFFSET ( 1, 0, .AHEAD. ) ;
#165 = ORIENTED_EDGE ( 'NONE', *, *, #193, .F. ) ;
#166 = CIRCLE ( 'NONE', #143, 0.5799999999999999600 ) ;
#167 = DATE_AND_TIME ( #145, #183 ) ;
#168 = DESIGN_CONTEXT ( 'detailed design', #219, 'design' ) ;
#169 = DIRECTION ( 'NONE',  ( -3.491481338843133355E-15, 1.224646799147353207E-16, -1.000000000000000000 ) ) ;
#170 = DIRECTION ( 'NONE',  ( 4.275831445896957731E-31, 1.000000000000000000, 1.224646799147352961E-16 ) ) ;
#171 = FACE_OUTER_BOUND ( 'NONE', #33, .T. ) ;
#172 = EDGE_CURVE ( 'NONE', #7, #7, #103, .T. ) ;
#173 = DIRECTION ( 'NONE',  ( -3.491481338843133355E-15, 1.224646799147353207E-16, -1.000000000000000000 ) ) ;
#174 = CARTESIAN_POINT ( 'NONE',  ( 1.047444401652940007E-13, -3.673940397442059178E-15, 30.00000000000000000 ) ) ;
#175 = COORDINATED_UNIVERSAL_TIME_OFFSET ( 1, 0, .AHEAD. ) ;
#176 = APPROVAL_PERSON_ORGANIZATION ( #144, #148, #196 ) ;
#177 = CARTESIAN_POINT ( 'NONE',  ( 1.040461438975253740E-13, 0.7499999999999962252, 29.80000000000000071 ) ) ;
#178 = VERTEX_POINT ( 'NONE', #56 ) ;
#179 = APPROVAL ( #72, 'UNSPECIFIED' ) ;
#180 = LOCAL_TIME ( 7, 15, 5.000000000000000000, #46 ) ;
#181 = ADVANCED_FACE ( 'NONE', ( #67, #204 ), #186, .T. ) ;
#182 = ADVANCED_FACE ( 'NONE', ( #35 ), #20, .F. ) ;
#183 = LOCAL_TIME ( 7, 15, 5.000000000000000000, #164 ) ;
#184 = ORIENTED_EDGE ( 'NONE', *, *, #37, .T. ) ;
#185 = FACE_OUTER_BOUND ( 'NONE', #114, .T. ) ;
#186 = CYLINDRICAL_SURFACE ( 'NONE', #89, 0.7499999999999986677 ) ;
#187 = PERSON ( 'UNSPECIFIED', 'UNSPECIFIED', 'UNSPECIFIED', ('UNSPECIFIED'), ('UNSPECIFIED'), ('UNSPECIFIED') ) ;
#188 = DIRECTION ( 'NONE',  ( -3.320568869633171017E-31, -1.000000000000000000, -9.346570452461261315E-17 ) ) ;
#189 = EDGE_LOOP ( 'NONE', ( #31 ) ) ;
#190 = PERSON_AND_ORGANIZATION_ROLE ( 'creator' ) ;
#191 = CARTESIAN_POINT ( 'NONE',  ( 3.245139397192253274E-14, -1.138241677349264484E-15, 9.294448637286707893 ) ) ;
#192 = VERTEX_POINT ( 'NONE', #122 ) ;
#193 = EDGE_CURVE ( 'NONE', #84, #84, #146, .T. ) ;
#194 = CARTESIAN_POINT ( 'NONE',  ( 3.245139397192253274E-14, 0.7499999999999963363, 9.294448637286707893 ) ) ;
#195 = LOCAL_TIME ( 7, 15, 5.000000000000000000, #210 ) ;
#196 = APPROVAL_ROLE ( '' ) ;
#197 = SHAPE_DEFINITION_REPRESENTATION ( #162, #11 ) ;
#198 = ADVANCED_FACE ( 'NONE', ( #120, #155 ), #6, .T. ) ;
#199 = APPROVAL_ROLE ( '' ) ;
#200 = AXIS2_PLACEMENT_3D ( 'NONE', #22, #99, #170 ) ;
#201 = DATE_AND_TIME ( #48, #180 ) ;
#202 = DIRECTION ( 'NONE',  ( 3.320568869633171017E-31, 1.000000000000000000, 9.346570452461261315E-17 ) ) ;
#203 = CC_DESIGN_APPROVAL ( #66, ( #95 ) ) ;
#204 = FACE_OUTER_BOUND ( 'NONE', #17, .T. ) ;
#205 = EDGE_LOOP ( 'NONE', ( #92 ) ) ;
#206 = PRODUCT_RELATED_PRODUCT_CATEGORY ( 'detail', '', ( #21 ) ) ;
#207 = AXIS2_PLACEMENT_3D ( 'NONE', #174, #36, #54 ) ;
#208 = APPROVAL_PERSON_ORGANIZATION ( #85, #179, #86 ) ;
#209 = CARTESIAN_POINT ( 'NONE',  ( 3.142333204958820020E-14, 4.349303369719371599E-33, 9.000000000000000000 ) ) ;
#210 = COORDINATED_UNIVERSAL_TIME_OFFSET ( 1, 0, .AHEAD. ) ;
#211 = DIRECTION ( 'NONE',  ( 1.000000000000000000, 0.0000000000000000000, 0.0000000000000000000 ) ) ;
#212 = DIRECTION ( 'NONE',  ( -4.275831445896958607E-31, -1.000000000000000000, -1.224646799147353207E-16 ) ) ;
#213 = CIRCLE ( 'NONE', #78, 0.5799999999999989608 ) ;
#214 = APPLICATION_PROTOCOL_DEFINITION ( 'international standard', 'config_control_design', 1994, #98 ) ;
#215 = APPROVAL_PERSON_ORGANIZATION ( #161, #66, #199 ) ;
#216 = PERSON_AND_ORGANIZATION_ROLE ( 'creator' ) ;
#217 = EDGE_CURVE ( 'NONE', #73, #73, #87, .T. ) ;
#218 = APPROVAL_STATUS ( 'not_yet_approved' ) ;
#219 = APPLICATION_CONTEXT ( 'configuration controlled 3d designs of mechanical parts and assemblies' ) ;
#220 = CLOSED_SHELL ( 'NONE', ( #182, #198, #181, #93, #74 ) ) ;
#221 = CC_DESIGN_PERSON_AND_ORGANIZATION_ASSIGNMENT ( #12, #137, ( #21 ) ) ;
#222 = EDGE_LOOP ( 'NONE', ( #165 ) ) ;
#223 = UNCERTAINTY_MEASURE_WITH_UNIT (LENGTH_MEASURE( 1.000000000000000082E-05 ), #27, 'distance_accuracy_value', 'NONE');
ENDSEC;
END-ISO-10303-21;
