ISO-10303-21;
HEADER;
FILE_DESCRIPTION (( 'STEP AP203' ),
    '1' );
FILE_NAME ('55367.step',
    '2021-10-08T05:15:05',
    ( '' ),
    ( '' ),
    'SwSTEP 2.0',
    'SolidWorks 2019',
    '' );
FILE_SCHEMA (( 'CONFIG_CONTROL_DESIGN' ));
ENDSEC;

DATA;
#1 = DIRECTION ( 'NONE',  ( 4.275831445896958607E-31, 1.000000000000000000, 1.224646799147353207E-16 ) ) ;
#2 = CARTESIAN_POINT ( 'NONE',  ( 3.248163108728531409E-14, -1.139302252587989529E-15, 9.303108891324553653 ) ) ;
#3 = ORIENTED_EDGE ( 'NONE', *, *, #118, .T. ) ;
#4 = DIRECTION ( 'NONE',  ( 3.491481338843133355E-15, -1.224646799147353207E-16, 1.000000000000000000 ) ) ;
#5 = LOCAL_TIME ( 7, 15, 5.000000000000000000, #204 ) ;
#6 = EDGE_LOOP ( 'NONE', ( #148 ) ) ;
#7 = DIRECTION ( 'NONE',  ( 0.0000000000000000000, 1.000000000000000000, 0.0000000000000000000 ) ) ;
#8 = CC_DESIGN_PERSON_AND_ORGANIZATION_ASSIGNMENT ( #100, #12, ( #146 ) ) ;
#9 = APPROVAL_STATUS ( 'not_yet_approved' ) ;
#10 = DIRECTION ( 'NONE',  ( -3.491481338843133355E-15, 1.224646799147353207E-16, -1.000000000000000000 ) ) ;
#11 = ORGANIZATION ( 'UNSPECIFIED', 'UNSPECIFIED', '' ) ;
#12 = PERSON_AND_ORGANIZATION_ROLE ( 'design_supplier' ) ;
#13 = CIRCLE ( 'NONE', #139, 0.5749999999999997335 ) ;
#14 = CIRCLE ( 'NONE', #140, 0.5500000000000000444 ) ;
#15 = SECURITY_CLASSIFICATION ( '', '', #172 ) ;
#16 = CC_DESIGN_DATE_AND_TIME_ASSIGNMENT ( #218, #183, ( #15 ) ) ;
#17 = VERTEX_POINT ( 'NONE', #208 ) ;
#18 = AXIS2_PLACEMENT_3D ( 'NONE', #112, #70, #122 ) ;
#19 = FACE_BOUND ( 'NONE', #94, .T. ) ;
#20 = CC_DESIGN_PERSON_AND_ORGANIZATION_ASSIGNMENT ( #152, #47, ( #146 ) ) ;
#21 = APPLICATION_CONTEXT ( 'configuration controlled 3d designs of mechanical parts and assemblies' ) ;
#22 = FACE_OUTER_BOUND ( 'NONE', #163, .T. ) ;
#23 = DIRECTION ( 'NONE',  ( 0.0000000000000000000, 1.000000000000000000, 0.0000000000000000000 ) ) ;
#24 = CARTESIAN_POINT ( 'NONE',  ( 3.142333204958820020E-14, 4.311809375152822833E-33, 9.000000000000000000 ) ) ;
#25 = FACE_OUTER_BOUND ( 'NONE', #124, .T. ) ;
#26 = PERSON_AND_ORGANIZATION ( #56, #11 ) ;
#27 = CC_DESIGN_PERSON_AND_ORGANIZATION_ASSIGNMENT ( #166, #69, ( #137 ) ) ;
#28 = PLANE ( 'NONE',  #170 ) ;
#29 = PERSON_AND_ORGANIZATION_ROLE ( 'creator' ) ;
#30 = COORDINATED_UNIVERSAL_TIME_OFFSET ( 1, 0, .AHEAD. ) ;
#31 = APPLICATION_CONTEXT ( 'configuration controlled 3d designs of mechanical parts and assemblies' ) ;
#32 = LOCAL_TIME ( 7, 15, 5.000000000000000000, #156 ) ;
#33 = CARTESIAN_POINT ( 'NONE',  ( 1.040461438975253740E-13, -3.649447461459112464E-15, 29.80000000000000071 ) ) ;
#34 = CARTESIAN_POINT ( 'NONE',  ( 3.142333204958820020E-14, -1.102182119232617714E-15, 9.000000000000000000 ) ) ;
#35 = CARTESIAN_POINT ( 'NONE',  ( 1.206288842183775773E-15, 0.5749999999999989564, 0.3454948559408503872 ) ) ;
#36 = ORIENTED_EDGE ( 'NONE', *, *, #118, .F. ) ;
#37 = VERTEX_POINT ( 'NONE', #54 ) ;
#38 = FACE_OUTER_BOUND ( 'NONE', #61, .T. ) ;
#39 =( LENGTH_UNIT ( ) NAMED_UNIT ( * ) SI_UNIT ( .MILLI., .METRE. ) );
#40 = UNCERTAINTY_MEASURE_WITH_UNIT (LENGTH_MEASURE( 1.000000000000000082E-05 ), #39, 'distance_accuracy_value', 'NONE');
#41 = FACE_OUTER_BOUND ( 'NONE', #200, .T. ) ;
#42 = ORIENTED_EDGE ( 'NONE', *, *, #175, .F. ) ;
#43 = PRODUCT_DEFINITION ( 'UNKNOWN', '', #146, #158 ) ;
#44 = CC_DESIGN_PERSON_AND_ORGANIZATION_ASSIGNMENT ( #133, #117, ( #15 ) ) ;
#45 = APPROVAL_PERSON_ORGANIZATION ( #59, #85, #96 ) ;
#46 = CALENDAR_DATE ( 2021, 8, 10 ) ;
#47 = PERSON_AND_ORGANIZATION_ROLE ( 'creator' ) ;
#48 = APPROVAL_PERSON_ORGANIZATION ( #130, #195, #132 ) ;
#49 = DIRECTION ( 'NONE',  ( 4.275831445896958607E-31, 1.000000000000000000, 1.224646799147353207E-16 ) ) ;
#50 = ADVANCED_FACE ( 'NONE', ( #212 ), #101, .T. ) ;
#51 = VERTEX_POINT ( 'NONE', #108 ) ;
#52 = FACE_OUTER_BOUND ( 'NONE', #209, .T. ) ;
#53 = AXIS2_PLACEMENT_3D ( 'NONE', #197, #71, #191 ) ;
#54 = CARTESIAN_POINT ( 'NONE',  ( 3.142333204958820020E-14, 0.5749999999999987343, 9.000000000000000000 ) ) ;
#55 = ORIENTED_EDGE ( 'NONE', *, *, #114, .T. ) ;
#56 = PERSON ( 'UNSPECIFIED', 'UNSPECIFIED', 'UNSPECIFIED', ('UNSPECIFIED'), ('UNSPECIFIED'), ('UNSPECIFIED') ) ;
#57 = FACE_OUTER_BOUND ( 'NONE', #150, .T. ) ;
#58 = DIRECTION ( 'NONE',  ( -3.491481338843133355E-15, 1.224646799147353207E-16, -1.000000000000000000 ) ) ;
#59 = PERSON_AND_ORGANIZATION ( #56, #11 ) ;
#60 = AXIS2_PLACEMENT_3D ( 'NONE', #210, #58, #149 ) ;
#61 = EDGE_LOOP ( 'NONE', ( #95 ) ) ;
#62 = SHAPE_DEFINITION_REPRESENTATION ( #116, #138 ) ;
#63 = APPROVAL_DATE_TIME ( #203, #85 ) ;
#64 = AXIS2_PLACEMENT_3D ( 'NONE', #177, #126, #111 ) ;
#65 = APPLICATION_PROTOCOL_DEFINITION ( 'international standard', 'config_control_design', 1994, #31 ) ;
#66 = LOCAL_TIME ( 7, 15, 5.000000000000000000, #219 ) ;
#67 = MANIFOLD_SOLID_BREP ( 'Corps-Déplacer/Copier1[2]', #123 ) ;
#68 = FACE_BOUND ( 'NONE', #167, .T. ) ;
#69 = PERSON_AND_ORGANIZATION_ROLE ( 'design_owner' ) ;
#70 = DIRECTION ( 'NONE',  ( -3.491481338843133355E-15, 1.224646799147353207E-16, -1.000000000000000000 ) ) ;
#71 = DIRECTION ( 'NONE',  ( -3.491481338843133355E-15, 1.224646799147353207E-16, -1.000000000000000000 ) ) ;
#72 = EDGE_LOOP ( 'NONE', ( #93 ) ) ;
#73 = AXIS2_PLACEMENT_3D ( 'NONE', #128, #214, #115 ) ;
#74 = DIRECTION ( 'NONE',  ( 0.0000000000000000000, 1.000000000000000000, 0.0000000000000000000 ) ) ;
#75 = CARTESIAN_POINT ( 'NONE',  ( 0.0000000000000000000, 0.0000000000000000000, 0.0000000000000000000 ) ) ;
#76 = DIRECTION ( 'NONE',  ( 0.0000000000000000000, -1.000000000000000000, 0.0000000000000000000 ) ) ;
#77 = APPROVAL_STATUS ( 'not_yet_approved' ) ;
#78 = DATE_AND_TIME ( #187, #87 ) ;
#79 = CONICAL_SURFACE ( 'NONE', #222, 0.7499999999999975575, 0.5235987755982927094 ) ;
#80 = FACE_OUTER_BOUND ( 'NONE', #198, .T. ) ;
#81 = DATE_TIME_ROLE ( 'creation_date' ) ;
#82 = CALENDAR_DATE ( 2021, 8, 10 ) ;
#83 = CC_DESIGN_APPROVAL ( #195, ( #15 ) ) ;
#84 = ADVANCED_FACE ( 'NONE', ( #25, #38 ), #180, .T. ) ;
#85 = APPROVAL ( #77, 'UNSPECIFIED' ) ;
#86 = ADVANCED_FACE ( 'NONE', ( #57 ), #109, .T. ) ;
#87 = LOCAL_TIME ( 7, 15, 5.000000000000000000, #30 ) ;
#88 = CARTESIAN_POINT ( 'NONE',  ( 0.0000000000000000000, 0.0000000000000000000, 0.0000000000000000000 ) ) ;
#89 = CYLINDRICAL_SURFACE ( 'NONE', #18, 0.7499999999999986677 ) ;
#90 = VERTEX_POINT ( 'NONE', #35 ) ;
#91 = ORIENTED_EDGE ( 'NONE', *, *, #181, .F. ) ;
#92 = CARTESIAN_POINT ( 'NONE',  ( 1.047444401652940007E-13, -3.673940397442059178E-15, 30.00000000000000000 ) ) ;
#93 = ORIENTED_EDGE ( 'NONE', *, *, #202, .F. ) ;
#94 = EDGE_LOOP ( 'NONE', ( #36 ) ) ;
#95 = ORIENTED_EDGE ( 'NONE', *, *, #181, .T. ) ;
#96 = APPROVAL_ROLE ( '' ) ;
#97 = DIRECTION ( 'NONE',  ( 3.349443381543025101E-31, 1.000000000000000000, 9.427844978134838690E-17 ) ) ;
#98 = DATE_AND_TIME ( #46, #32 ) ;
#99 = ADVANCED_FACE ( 'NONE', ( #52, #41 ), #89, .T. ) ;
#100 = PERSON_AND_ORGANIZATION ( #56, #11 ) ;
#101 = CONICAL_SURFACE ( 'NONE', #73, 0.5749999999999989564, 1.029744258676649649 ) ;
#102 = APPROVAL_PERSON_ORGANIZATION ( #26, #103, #168 ) ;
#103 = APPROVAL ( #113, 'UNSPECIFIED' ) ;
#104 = MECHANICAL_CONTEXT ( 'NONE', #21, 'mechanical' ) ;
#105 = AXIS2_PLACEMENT_3D ( 'NONE', #33, #179, #143 ) ;
#106 = CARTESIAN_POINT ( 'NONE',  ( 3.142333204958820020E-14, 0.5749999999999987343, 9.000000000000000000 ) ) ;
#107 = DIRECTION ( 'NONE',  ( -4.275831445896958607E-31, -1.000000000000000000, -1.224646799147353207E-16 ) ) ;
#108 = CARTESIAN_POINT ( 'NONE',  ( 1.040461438975253740E-13, 0.7499999999999962252, 29.80000000000000071 ) ) ;
#109 = PLANE ( 'NONE',  #157 ) ;
#110 = VERTEX_POINT ( 'NONE', #106 ) ;
#111 = DIRECTION ( 'NONE',  ( -4.275831445896958607E-31, -1.000000000000000000, -1.224646799147353207E-16 ) ) ;
#112 = CARTESIAN_POINT ( 'NONE',  ( 0.0000000000000000000, 0.0000000000000000000, 0.0000000000000000000 ) ) ;
#113 = APPROVAL_STATUS ( 'not_yet_approved' ) ;
#114 = EDGE_CURVE ( 'NONE', #196, #196, #14, .T. ) ;
#115 = DIRECTION ( 'NONE',  ( -3.349443381543025101E-31, -1.000000000000000000, -9.427844978134838690E-17 ) ) ;
#116 = PRODUCT_DEFINITION_SHAPE ( 'NONE', 'NONE',  #43 ) ;
#117 = PERSON_AND_ORGANIZATION_ROLE ( 'classification_officer' ) ;
#118 = EDGE_CURVE ( 'NONE', #37, #37, #13, .T. ) ;
#119 = EDGE_CURVE ( 'NONE', #90, #90, #189, .T. ) ;
#120 = ADVANCED_FACE ( 'NONE', ( #80 ), #28, .F. ) ;
#121 = CARTESIAN_POINT ( 'NONE',  ( 1.047444401652940007E-13, 0.5499999999999963807, 30.00000000000000000 ) ) ;
#122 = DIRECTION ( 'NONE',  ( 4.275831445896959482E-31, 1.000000000000000000, 1.224646799147353207E-16 ) ) ;
#123 = CLOSED_SHELL ( 'NONE', ( #50, #84, #86 ) ) ;
#124 = EDGE_LOOP ( 'NONE', ( #216 ) ) ;
#125 = ADVANCED_FACE ( 'NONE', ( #142, #68 ), #165, .T. ) ;
#126 = DIRECTION ( 'NONE',  ( 3.491481338843133355E-15, -1.224646799147353207E-16, 1.000000000000000000 ) ) ;
#127 = PLANE ( 'NONE',  #64 ) ;
#128 = CARTESIAN_POINT ( 'NONE',  ( 1.206288842183775576E-15, -4.231091694498382485E-17, 0.3454948559408503317 ) ) ;
#129 = CIRCLE ( 'NONE', #60, 0.7499999999999975575 ) ;
#130 = PERSON_AND_ORGANIZATION ( #56, #11 ) ;
#131 = ORIENTED_EDGE ( 'NONE', *, *, #114, .F. ) ;
#132 = APPROVAL_ROLE ( '' ) ;
#133 = PERSON_AND_ORGANIZATION ( #56, #11 ) ;
#134 = APPROVAL_DATE_TIME ( #98, #103 ) ;
#135 = ADVANCED_FACE ( 'NONE', ( #215 ), #127, .F. ) ;
#136 = AXIS2_PLACEMENT_3D ( 'NONE', #92, #193, #74 ) ;
#137 = PRODUCT ( '55367', '55367', '', ( #104 ) ) ;
#138 = ADVANCED_BREP_SHAPE_REPRESENTATION ( '55367', ( #141, #67, #211 ), #192 ) ;
#139 = AXIS2_PLACEMENT_3D ( 'NONE', #34, #176, #23 ) ;
#140 = AXIS2_PLACEMENT_3D ( 'NONE', #164, #182, #7 ) ;
#141 = MANIFOLD_SOLID_BREP ( 'Corps-Déplacer/Copier1[1]', #206 ) ;
#142 = FACE_OUTER_BOUND ( 'NONE', #72, .T. ) ;
#143 = DIRECTION ( 'NONE',  ( 0.0000000000000000000, 1.000000000000000000, 0.0000000000000000000 ) ) ;
#144 = ADVANCED_FACE ( 'NONE', ( #19, #22 ), #79, .T. ) ;
#145 = ORIENTED_EDGE ( 'NONE', *, *, #175, .T. ) ;
#146 = PRODUCT_DEFINITION_FORMATION_WITH_SPECIFIED_SOURCE ( 'ANY', '', #137, .NOT_KNOWN. ) ;
#147 = DIRECTION ( 'NONE',  ( 0.0000000000000000000, 0.0000000000000000000, 1.000000000000000000 ) ) ;
#148 = ORIENTED_EDGE ( 'NONE', *, *, #119, .T. ) ;
#149 = DIRECTION ( 'NONE',  ( 0.0000000000000000000, 1.000000000000000000, 0.0000000000000000000 ) ) ;
#150 = EDGE_LOOP ( 'NONE', ( #91 ) ) ;
#151 = CC_DESIGN_DATE_AND_TIME_ASSIGNMENT ( #78, #81, ( #43 ) ) ;
#152 = PERSON_AND_ORGANIZATION ( #56, #11 ) ;
#153 = CIRCLE ( 'NONE', #53, 0.5749999999999997335 ) ;
#154 = DATE_AND_TIME ( #82, #66 ) ;
#155 = CARTESIAN_POINT ( 'NONE',  ( 1.206288842183775576E-15, -4.231091694498382485E-17, 0.3454948559408503317 ) ) ;
#156 = COORDINATED_UNIVERSAL_TIME_OFFSET ( 1, 0, .AHEAD. ) ;
#157 = AXIS2_PLACEMENT_3D ( 'NONE', #24, #194, #107 ) ;
#158 = DESIGN_CONTEXT ( 'detailed design', #31, 'design' ) ;
#159 =( NAMED_UNIT ( * ) SI_UNIT ( $, .STERADIAN. ) SOLID_ANGLE_UNIT ( ) );
#160 = DIRECTION ( 'NONE',  ( 1.000000000000000000, 0.0000000000000000000, 0.0000000000000000000 ) ) ;
#161 = EDGE_LOOP ( 'NONE', ( #3 ) ) ;
#162 =( NAMED_UNIT ( * ) PLANE_ANGLE_UNIT ( ) SI_UNIT ( $, .RADIAN. ) );
#163 = EDGE_LOOP ( 'NONE', ( #145 ) ) ;
#164 = CARTESIAN_POINT ( 'NONE',  ( 1.047444401652940007E-13, -3.673940397442059178E-15, 30.00000000000000000 ) ) ;
#165 = CONICAL_SURFACE ( 'NONE', #136, 0.5500000000000000444, 0.7853981633974510546 ) ;
#166 = PERSON_AND_ORGANIZATION ( #56, #11 ) ;
#167 = EDGE_LOOP ( 'NONE', ( #55 ) ) ;
#168 = APPROVAL_ROLE ( '' ) ;
#169 = CARTESIAN_POINT ( 'NONE',  ( 1.047444401652940007E-13, 4.124339402320052999E-33, 30.00000000000000000 ) ) ;
#170 = AXIS2_PLACEMENT_3D ( 'NONE', #169, #207, #49 ) ;
#171 = PERSON_AND_ORGANIZATION ( #56, #11 ) ;
#172 = SECURITY_CLASSIFICATION_LEVEL ( 'unclassified' ) ;
#173 = CALENDAR_DATE ( 2021, 8, 10 ) ;
#174 = AXIS2_PLACEMENT_3D ( 'NONE', #155, #10, #97 ) ;
#175 = EDGE_CURVE ( 'NONE', #17, #17, #129, .T. ) ;
#176 = DIRECTION ( 'NONE',  ( -3.491481338843133355E-15, 1.224646799147353207E-16, -1.000000000000000000 ) ) ;
#177 = CARTESIAN_POINT ( 'NONE',  ( 3.142333204958820020E-14, 4.311809375152822833E-33, 9.000000000000000000 ) ) ;
#178 = ORIENTED_EDGE ( 'NONE', *, *, #202, .T. ) ;
#179 = DIRECTION ( 'NONE',  ( -3.491481338843133355E-15, 1.224646799147353207E-16, -1.000000000000000000 ) ) ;
#180 = CYLINDRICAL_SURFACE ( 'NONE', #205, 0.5749999999999992895 ) ;
#181 = EDGE_CURVE ( 'NONE', #110, #110, #153, .T. ) ;
#182 = DIRECTION ( 'NONE',  ( -3.491481338843133355E-15, 1.224646799147353207E-16, -1.000000000000000000 ) ) ;
#183 = DATE_TIME_ROLE ( 'classification_date' ) ;
#184 = DIRECTION ( 'NONE',  ( -3.491481338843133355E-15, 1.224646799147353207E-16, -1.000000000000000000 ) ) ;
#185 = PRODUCT_RELATED_PRODUCT_CATEGORY ( 'detail', '', ( #137 ) ) ;
#186 = CIRCLE ( 'NONE', #105, 0.7499999999999998890 ) ;
#187 = CALENDAR_DATE ( 2021, 8, 10 ) ;
#188 = CC_DESIGN_APPROVAL ( #85, ( #43 ) ) ;
#189 = CIRCLE ( 'NONE', #174, 0.5749999999999989564 ) ;
#190 = CC_DESIGN_PERSON_AND_ORGANIZATION_ASSIGNMENT ( #171, #29, ( #43 ) ) ;
#191 = DIRECTION ( 'NONE',  ( 0.0000000000000000000, 1.000000000000000000, 0.0000000000000000000 ) ) ;
#192 =( GEOMETRIC_REPRESENTATION_CONTEXT ( 3 ) GLOBAL_UNCERTAINTY_ASSIGNED_CONTEXT ( ( #40 ) ) GLOBAL_UNIT_ASSIGNED_CONTEXT ( ( #39, #162, #159 ) ) REPRESENTATION_CONTEXT ( 'NONE', 'WORKASPACE' ) );
#193 = DIRECTION ( 'NONE',  ( -3.491481338843133355E-15, 1.224646799147353207E-16, -1.000000000000000000 ) ) ;
#194 = DIRECTION ( 'NONE',  ( 3.491481338843133355E-15, -1.224646799147353207E-16, 1.000000000000000000 ) ) ;
#195 = APPROVAL ( #9, 'UNSPECIFIED' ) ;
#196 = VERTEX_POINT ( 'NONE', #121 ) ;
#197 = CARTESIAN_POINT ( 'NONE',  ( 3.142333204958820020E-14, -1.102182119232617714E-15, 9.000000000000000000 ) ) ;
#198 = EDGE_LOOP ( 'NONE', ( #131 ) ) ;
#199 = APPROVAL_DATE_TIME ( #154, #195 ) ;
#200 = EDGE_LOOP ( 'NONE', ( #178 ) ) ;
#201 = LOCAL_TIME ( 7, 15, 5.000000000000000000, #220 ) ;
#202 = EDGE_CURVE ( 'NONE', #51, #51, #186, .T. ) ;
#203 = DATE_AND_TIME ( #221, #201 ) ;
#204 = COORDINATED_UNIVERSAL_TIME_OFFSET ( 1, 0, .AHEAD. ) ;
#205 = AXIS2_PLACEMENT_3D ( 'NONE', #75, #184, #1 ) ;
#206 = CLOSED_SHELL ( 'NONE', ( #135, #144, #99, #125, #120 ) ) ;
#207 = DIRECTION ( 'NONE',  ( -3.491481338843133355E-15, 1.224646799147353207E-16, -1.000000000000000000 ) ) ;
#208 = CARTESIAN_POINT ( 'NONE',  ( 3.248163108728531409E-14, 0.7499999999999963363, 9.303108891324553653 ) ) ;
#209 = EDGE_LOOP ( 'NONE', ( #42 ) ) ;
#210 = CARTESIAN_POINT ( 'NONE',  ( 3.248163108728531409E-14, -1.139302252587989529E-15, 9.303108891324553653 ) ) ;
#211 = AXIS2_PLACEMENT_3D ( 'NONE', #88, #147, #160 ) ;
#212 = FACE_OUTER_BOUND ( 'NONE', #6, .T. ) ;
#213 = APPLICATION_PROTOCOL_DEFINITION ( 'international standard', 'config_control_design', 1994, #21 ) ;
#214 = DIRECTION ( 'NONE',  ( 3.491481338843133355E-15, -1.224646799147353207E-16, 1.000000000000000000 ) ) ;
#215 = FACE_OUTER_BOUND ( 'NONE', #161, .T. ) ;
#216 = ORIENTED_EDGE ( 'NONE', *, *, #119, .F. ) ;
#217 = CC_DESIGN_APPROVAL ( #103, ( #146 ) ) ;
#218 = DATE_AND_TIME ( #173, #5 ) ;
#219 = COORDINATED_UNIVERSAL_TIME_OFFSET ( 1, 0, .AHEAD. ) ;
#220 = COORDINATED_UNIVERSAL_TIME_OFFSET ( 1, 0, .AHEAD. ) ;
#221 = CALENDAR_DATE ( 2021, 8, 10 ) ;
#222 = AXIS2_PLACEMENT_3D ( 'NONE', #2, #4, #76 ) ;
#223 = CC_DESIGN_SECURITY_CLASSIFICATION ( #15, ( #146 ) ) ;
ENDSEC;
END-ISO-10303-21;
