ISO-10303-21;
HEADER;
FILE_DESCRIPTION (( 'STEP AP203' ),
    '1' );
FILE_NAME ('55366.step',
    '2021-10-08T05:15:04',
    ( '' ),
    ( '' ),
    'SwSTEP 2.0',
    'SolidWorks 2019',
    '' );
FILE_SCHEMA (( 'CONFIG_CONTROL_DESIGN' ));
ENDSEC;

DATA;
#1 = COORDINATED_UNIVERSAL_TIME_OFFSET ( 1, 0, .AHEAD. ) ;
#2 = APPROVAL_STATUS ( 'not_yet_approved' ) ;
#3 = COORDINATED_UNIVERSAL_TIME_OFFSET ( 1, 0, .AHEAD. ) ;
#4 = PRODUCT_DEFINITION_FORMATION_WITH_SPECIFIED_SOURCE ( 'ANY', '', #133, .NOT_KNOWN. ) ;
#5 = ORIENTED_EDGE ( 'NONE', *, *, #53, .F. ) ;
#6 = AXIS2_PLACEMENT_3D ( 'NONE', #27, #223, #40 ) ;
#7 = CARTESIAN_POINT ( 'NONE',  ( 3.142333204958820020E-14, 4.274315380586278171E-33, 9.000000000000000000 ) ) ;
#8 = AXIS2_PLACEMENT_3D ( 'NONE', #180, #157, #197 ) ;
#9 = DIRECTION ( 'NONE',  ( -3.491481338843133355E-15, 1.224646799147353207E-16, -1.000000000000000000 ) ) ;
#10 = DIRECTION ( 'NONE',  ( -3.491481338843133355E-15, 1.224646799147353207E-16, -1.000000000000000000 ) ) ;
#11 = CARTESIAN_POINT ( 'NONE',  ( 1.047444401652940007E-13, 4.124339402320052999E-33, 30.00000000000000000 ) ) ;
#12 = APPLICATION_CONTEXT ( 'configuration controlled 3d designs of mechanical parts and assemblies' ) ;
#13 = DIRECTION ( 'NONE',  ( -3.491481338843133355E-15, 1.224646799147353207E-16, -1.000000000000000000 ) ) ;
#14 = PERSON_AND_ORGANIZATION ( #130, #181 ) ;
#15 = APPROVAL_ROLE ( '' ) ;
#16 = APPROVAL_PERSON_ORGANIZATION ( #67, #87, #203 ) ;
#17 = APPROVAL_ROLE ( '' ) ;
#18 = CONICAL_SURFACE ( 'NONE', #188, 0.5699999999999988409, 1.029744258676649649 ) ;
#19 = SHAPE_DEFINITION_REPRESENTATION ( #206, #98 ) ;
#20 = AXIS2_PLACEMENT_3D ( 'NONE', #11, #13, #30 ) ;
#21 = AXIS2_PLACEMENT_3D ( 'NONE', #177, #193, #142 ) ;
#22 = ORIENTED_EDGE ( 'NONE', *, *, #43, .T. ) ;
#23 = DIRECTION ( 'NONE',  ( 0.0000000000000000000, 1.000000000000000000, 0.0000000000000000000 ) ) ;
#24 = EDGE_CURVE ( 'NONE', #109, #109, #112, .T. ) ;
#25 = FACE_OUTER_BOUND ( 'NONE', #174, .T. ) ;
#26 = AXIS2_PLACEMENT_3D ( 'NONE', #108, #9, #44 ) ;
#27 = CARTESIAN_POINT ( 'NONE',  ( 3.251186820264807651E-14, -1.140362827826714376E-15, 9.311769145362395861 ) ) ;
#28 = PLANE ( 'NONE',  #81 ) ;
#29 = CC_DESIGN_PERSON_AND_ORGANIZATION_ASSIGNMENT ( #117, #34, ( #133 ) ) ;
#30 = DIRECTION ( 'NONE',  ( 4.275831445896958607E-31, 1.000000000000000000, 1.224646799147353207E-16 ) ) ;
#31 = DATE_AND_TIME ( #200, #99 ) ;
#32 = PERSON_AND_ORGANIZATION ( #130, #181 ) ;
#33 = DESIGN_CONTEXT ( 'detailed design', #12, 'design' ) ;
#34 = PERSON_AND_ORGANIZATION_ROLE ( 'design_owner' ) ;
#35 = PERSON_AND_ORGANIZATION ( #130, #181 ) ;
#36 = APPROVAL ( #97, 'UNSPECIFIED' ) ;
#37 = ADVANCED_FACE ( 'NONE', ( #190 ), #209, .F. ) ;
#38 = EDGE_LOOP ( 'NONE', ( #70 ) ) ;
#39 = FACE_OUTER_BOUND ( 'NONE', #103, .T. ) ;
#40 = DIRECTION ( 'NONE',  ( 0.0000000000000000000, 1.000000000000000000, 0.0000000000000000000 ) ) ;
#41 = DIRECTION ( 'NONE',  ( -3.378824463837262582E-31, -1.000000000000000000, -9.510545372679882313E-17 ) ) ;
#42 = DIRECTION ( 'NONE',  ( -3.491481338843133355E-15, 1.224646799147353207E-16, -1.000000000000000000 ) ) ;
#43 = EDGE_CURVE ( 'NONE', #60, #60, #154, .T. ) ;
#44 = DIRECTION ( 'NONE',  ( 3.378824463837262582E-31, 1.000000000000000000, 9.510545372679882313E-17 ) ) ;
#45 = VERTEX_POINT ( 'NONE', #135 ) ;
#46 = AXIS2_PLACEMENT_3D ( 'NONE', #159, #10, #76 ) ;
#47 =( NAMED_UNIT ( * ) PLANE_ANGLE_UNIT ( ) SI_UNIT ( $, .RADIAN. ) );
#48 = APPROVAL_DATE_TIME ( #102, #87 ) ;
#49 = DIRECTION ( 'NONE',  ( 1.000000000000000000, 0.0000000000000000000, 0.0000000000000000000 ) ) ;
#50 = APPLICATION_PROTOCOL_DEFINITION ( 'international standard', 'config_control_design', 1994, #12 ) ;
#51 =( GEOMETRIC_REPRESENTATION_CONTEXT ( 3 ) GLOBAL_UNCERTAINTY_ASSIGNED_CONTEXT ( ( #83 ) ) GLOBAL_UNIT_ASSIGNED_CONTEXT ( ( #145, #47, #64 ) ) REPRESENTATION_CONTEXT ( 'NONE', 'WORKASPACE' ) );
#52 = DIRECTION ( 'NONE',  ( -3.491481338843133355E-15, 1.224646799147353207E-16, -1.000000000000000000 ) ) ;
#53 = EDGE_CURVE ( 'NONE', #61, #61, #187, .T. ) ;
#54 = EDGE_LOOP ( 'NONE', ( #153 ) ) ;
#55 = ORIENTED_EDGE ( 'NONE', *, *, #210, .F. ) ;
#56 = EDGE_LOOP ( 'NONE', ( #137 ) ) ;
#57 = FACE_OUTER_BOUND ( 'NONE', #122, .T. ) ;
#58 = FACE_OUTER_BOUND ( 'NONE', #138, .T. ) ;
#59 = CARTESIAN_POINT ( 'NONE',  ( 1.047444401652940007E-13, -3.673940397442059178E-15, 30.00000000000000000 ) ) ;
#60 = VERTEX_POINT ( 'NONE', #143 ) ;
#61 = VERTEX_POINT ( 'NONE', #127 ) ;
#62 = CC_DESIGN_APPROVAL ( #36, ( #211 ) ) ;
#63 = SECURITY_CLASSIFICATION_LEVEL ( 'unclassified' ) ;
#64 =( NAMED_UNIT ( * ) SI_UNIT ( $, .STERADIAN. ) SOLID_ANGLE_UNIT ( ) );
#65 = LOCAL_TIME ( 7, 15, 4.000000000000000000, #168 ) ;
#66 = PERSON_AND_ORGANIZATION_ROLE ( 'creator' ) ;
#67 = PERSON_AND_ORGANIZATION ( #130, #181 ) ;
#68 = DATE_AND_TIME ( #151, #199 ) ;
#69 = CLOSED_SHELL ( 'NONE', ( #100, #205, #164, #75, #37 ) ) ;
#70 = ORIENTED_EDGE ( 'NONE', *, *, #110, .F. ) ;
#71 = CC_DESIGN_DATE_AND_TIME_ASSIGNMENT ( #31, #95, ( #211 ) ) ;
#72 = CARTESIAN_POINT ( 'NONE',  ( 3.142333204958820020E-14, -1.102182119232617714E-15, 9.000000000000000000 ) ) ;
#73 = DIRECTION ( 'NONE',  ( 3.491481338843133355E-15, -1.224646799147353207E-16, 1.000000000000000000 ) ) ;
#74 = PLANE ( 'NONE',  #140 ) ;
#75 = ADVANCED_FACE ( 'NONE', ( #128, #196 ), #78, .T. ) ;
#76 = DIRECTION ( 'NONE',  ( 4.275831445896958607E-31, 1.000000000000000000, 1.224646799147353207E-16 ) ) ;
#77 = FACE_OUTER_BOUND ( 'NONE', #208, .T. ) ;
#78 = CONICAL_SURFACE ( 'NONE', #162, 0.5500000000000000444, 0.7853981633974510546 ) ;
#79 = PERSON_AND_ORGANIZATION_ROLE ( 'design_supplier' ) ;
#80 = CC_DESIGN_APPROVAL ( #87, ( #4 ) ) ;
#81 = AXIS2_PLACEMENT_3D ( 'NONE', #7, #73, #219 ) ;
#82 = CALENDAR_DATE ( 2021, 8, 10 ) ;
#83 = UNCERTAINTY_MEASURE_WITH_UNIT (LENGTH_MEASURE( 1.000000000000000082E-05 ), #145, 'distance_accuracy_value', 'NONE');
#84 = APPROVAL_PERSON_ORGANIZATION ( #35, #129, #17 ) ;
#85 = AXIS2_PLACEMENT_3D ( 'NONE', #72, #52, #120 ) ;
#86 = ADVANCED_FACE ( 'NONE', ( #57, #25 ), #220, .T. ) ;
#87 = APPROVAL ( #2, 'UNSPECIFIED' ) ;
#88 = CLOSED_SHELL ( 'NONE', ( #183, #86, #191 ) ) ;
#89 = CIRCLE ( 'NONE', #6, 0.7499999999999975575 ) ;
#90 = CARTESIAN_POINT ( 'NONE',  ( 1.195799373990872899E-15, -4.194299592807091827E-17, 0.3424905528457124482 ) ) ;
#91 = CARTESIAN_POINT ( 'NONE',  ( 3.142333204958820020E-14, 4.274315380586278171E-33, 9.000000000000000000 ) ) ;
#92 = DIRECTION ( 'NONE',  ( -4.275831445896958607E-31, -1.000000000000000000, -1.224646799147353207E-16 ) ) ;
#93 = CARTESIAN_POINT ( 'NONE',  ( 1.040461438975253740E-13, 0.7499999999999962252, 29.80000000000000071 ) ) ;
#94 = DIRECTION ( 'NONE',  ( -3.491481338843133355E-15, 1.224646799147353207E-16, -1.000000000000000000 ) ) ;
#95 = DATE_TIME_ROLE ( 'classification_date' ) ;
#96 = CC_DESIGN_SECURITY_CLASSIFICATION ( #211, ( #4 ) ) ;
#97 = APPROVAL_STATUS ( 'not_yet_approved' ) ;
#98 = ADVANCED_BREP_SHAPE_REPRESENTATION ( '55366', ( #198, #204, #155 ), #51 ) ;
#99 = LOCAL_TIME ( 7, 15, 4.000000000000000000, #1 ) ;
#100 = ADVANCED_FACE ( 'NONE', ( #141 ), #74, .F. ) ;
#101 = PERSON_AND_ORGANIZATION ( #130, #181 ) ;
#102 = DATE_AND_TIME ( #184, #166 ) ;
#103 = EDGE_LOOP ( 'NONE', ( #216 ) ) ;
#104 = CIRCLE ( 'NONE', #8, 0.5699999999999999512 ) ;
#105 = EDGE_LOOP ( 'NONE', ( #170 ) ) ;
#106 = EDGE_LOOP ( 'NONE', ( #107 ) ) ;
#107 = ORIENTED_EDGE ( 'NONE', *, *, #178, .F. ) ;
#108 = CARTESIAN_POINT ( 'NONE',  ( 1.195799373990872899E-15, -4.194299592807091827E-17, 0.3424905528457124482 ) ) ;
#109 = VERTEX_POINT ( 'NONE', #221 ) ;
#110 = EDGE_CURVE ( 'NONE', #179, #179, #171, .T. ) ;
#111 = FACE_BOUND ( 'NONE', #106, .T. ) ;
#112 = CIRCLE ( 'NONE', #85, 0.5699999999999999512 ) ;
#113 = FACE_OUTER_BOUND ( 'NONE', #212, .T. ) ;
#114 = CC_DESIGN_PERSON_AND_ORGANIZATION_ASSIGNMENT ( #144, #185, ( #211 ) ) ;
#115 = CYLINDRICAL_SURFACE ( 'NONE', #213, 0.7499999999999986677 ) ;
#116 = DIRECTION ( 'NONE',  ( 0.0000000000000000000, 0.0000000000000000000, 1.000000000000000000 ) ) ;
#117 = PERSON_AND_ORGANIZATION ( #130, #181 ) ;
#118 = PERSON_AND_ORGANIZATION_ROLE ( 'creator' ) ;
#119 = DATE_AND_TIME ( #182, #218 ) ;
#120 = DIRECTION ( 'NONE',  ( 0.0000000000000000000, 1.000000000000000000, 0.0000000000000000000 ) ) ;
#121 = ORIENTED_EDGE ( 'NONE', *, *, #210, .T. ) ;
#122 = EDGE_LOOP ( 'NONE', ( #5 ) ) ;
#123 = DIRECTION ( 'NONE',  ( 3.491481338843133355E-15, -1.224646799147353207E-16, 1.000000000000000000 ) ) ;
#124 = CARTESIAN_POINT ( 'NONE',  ( 0.0000000000000000000, 0.0000000000000000000, 0.0000000000000000000 ) ) ;
#125 = DIRECTION ( 'NONE',  ( 0.0000000000000000000, 1.000000000000000000, 0.0000000000000000000 ) ) ;
#126 = CC_DESIGN_DATE_AND_TIME_ASSIGNMENT ( #189, #131, ( #215 ) ) ;
#127 = CARTESIAN_POINT ( 'NONE',  ( 1.195799373990873096E-15, 0.5699999999999988409, 0.3424905528457125037 ) ) ;
#128 = FACE_OUTER_BOUND ( 'NONE', #38, .T. ) ;
#129 = APPROVAL ( #163, 'UNSPECIFIED' ) ;
#130 = PERSON ( 'UNSPECIFIED', 'UNSPECIFIED', 'UNSPECIFIED', ('UNSPECIFIED'), ('UNSPECIFIED'), ('UNSPECIFIED') ) ;
#131 = DATE_TIME_ROLE ( 'creation_date' ) ;
#132 = APPROVAL_DATE_TIME ( #119, #129 ) ;
#133 = PRODUCT ( '55366', '55366', '', ( #165 ) ) ;
#134 = COORDINATED_UNIVERSAL_TIME_OFFSET ( 1, 0, .AHEAD. ) ;
#135 = CARTESIAN_POINT ( 'NONE',  ( 3.251186820264807651E-14, 0.7499999999999963363, 9.311769145362395861 ) ) ;
#136 = APPROVAL_DATE_TIME ( #68, #36 ) ;
#137 = ORIENTED_EDGE ( 'NONE', *, *, #178, .T. ) ;
#138 = EDGE_LOOP ( 'NONE', ( #121 ) ) ;
#139 = DIRECTION ( 'NONE',  ( 0.0000000000000000000, 1.000000000000000000, 0.0000000000000000000 ) ) ;
#140 = AXIS2_PLACEMENT_3D ( 'NONE', #91, #123, #92 ) ;
#141 = FACE_OUTER_BOUND ( 'NONE', #56, .T. ) ;
#142 = DIRECTION ( 'NONE',  ( 0.0000000000000000000, -1.000000000000000000, 0.0000000000000000000 ) ) ;
#143 = CARTESIAN_POINT ( 'NONE',  ( 1.047444401652940007E-13, 0.5499999999999963807, 30.00000000000000000 ) ) ;
#144 = PERSON_AND_ORGANIZATION ( #130, #181 ) ;
#145 =( LENGTH_UNIT ( ) NAMED_UNIT ( * ) SI_UNIT ( .MILLI., .METRE. ) );
#146 = AXIS2_PLACEMENT_3D ( 'NONE', #161, #192, #125 ) ;
#147 = CARTESIAN_POINT ( 'NONE',  ( 0.0000000000000000000, 0.0000000000000000000, 0.0000000000000000000 ) ) ;
#148 = CC_DESIGN_PERSON_AND_ORGANIZATION_ASSIGNMENT ( #101, #118, ( #4 ) ) ;
#149 = APPROVAL_PERSON_ORGANIZATION ( #14, #36, #15 ) ;
#150 = PERSON_AND_ORGANIZATION ( #130, #181 ) ;
#151 = CALENDAR_DATE ( 2021, 8, 10 ) ;
#152 = EDGE_LOOP ( 'NONE', ( #22 ) ) ;
#153 = ORIENTED_EDGE ( 'NONE', *, *, #43, .F. ) ;
#154 = CIRCLE ( 'NONE', #195, 0.5500000000000000444 ) ;
#155 = AXIS2_PLACEMENT_3D ( 'NONE', #147, #116, #49 ) ;
#156 = DIRECTION ( 'NONE',  ( 3.491481338843133355E-15, -1.224646799147353207E-16, 1.000000000000000000 ) ) ;
#157 = DIRECTION ( 'NONE',  ( -3.491481338843133355E-15, 1.224646799147353207E-16, -1.000000000000000000 ) ) ;
#158 = CC_DESIGN_PERSON_AND_ORGANIZATION_ASSIGNMENT ( #150, #66, ( #215 ) ) ;
#159 = CARTESIAN_POINT ( 'NONE',  ( 0.0000000000000000000, 0.0000000000000000000, 0.0000000000000000000 ) ) ;
#160 = VERTEX_POINT ( 'NONE', #186 ) ;
#161 = CARTESIAN_POINT ( 'NONE',  ( 1.040461438975253740E-13, -3.649447461459112464E-15, 29.80000000000000071 ) ) ;
#162 = AXIS2_PLACEMENT_3D ( 'NONE', #176, #94, #139 ) ;
#163 = APPROVAL_STATUS ( 'not_yet_approved' ) ;
#164 = ADVANCED_FACE ( 'NONE', ( #113, #39 ), #115, .T. ) ;
#165 = MECHANICAL_CONTEXT ( 'NONE', #172, 'mechanical' ) ;
#166 = LOCAL_TIME ( 7, 15, 4.000000000000000000, #202 ) ;
#167 = PRODUCT_RELATED_PRODUCT_CATEGORY ( 'detail', '', ( #133 ) ) ;
#168 = COORDINATED_UNIVERSAL_TIME_OFFSET ( 1, 0, .AHEAD. ) ;
#169 = CC_DESIGN_PERSON_AND_ORGANIZATION_ASSIGNMENT ( #32, #79, ( #4 ) ) ;
#170 = ORIENTED_EDGE ( 'NONE', *, *, #53, .T. ) ;
#171 = CIRCLE ( 'NONE', #146, 0.7499999999999998890 ) ;
#172 = APPLICATION_CONTEXT ( 'configuration controlled 3d designs of mechanical parts and assemblies' ) ;
#173 = ORIENTED_EDGE ( 'NONE', *, *, #24, .F. ) ;
#174 = EDGE_LOOP ( 'NONE', ( #214 ) ) ;
#175 = DIRECTION ( 'NONE',  ( -3.491481338843133355E-15, 1.224646799147353207E-16, -1.000000000000000000 ) ) ;
#176 = CARTESIAN_POINT ( 'NONE',  ( 1.047444401652940007E-13, -3.673940397442059178E-15, 30.00000000000000000 ) ) ;
#177 = CARTESIAN_POINT ( 'NONE',  ( 3.251186820264807651E-14, -1.140362827826714376E-15, 9.311769145362395861 ) ) ;
#178 = EDGE_CURVE ( 'NONE', #160, #160, #104, .T. ) ;
#179 = VERTEX_POINT ( 'NONE', #93 ) ;
#180 = CARTESIAN_POINT ( 'NONE',  ( 3.142333204958820020E-14, -1.102182119232617714E-15, 9.000000000000000000 ) ) ;
#181 = ORGANIZATION ( 'UNSPECIFIED', 'UNSPECIFIED', '' ) ;
#182 = CALENDAR_DATE ( 2021, 8, 10 ) ;
#183 = ADVANCED_FACE ( 'NONE', ( #194 ), #18, .T. ) ;
#184 = CALENDAR_DATE ( 2021, 8, 10 ) ;
#185 = PERSON_AND_ORGANIZATION_ROLE ( 'classification_officer' ) ;
#186 = CARTESIAN_POINT ( 'NONE',  ( 3.142333204958820020E-14, 0.5699999999999988409, 9.000000000000000000 ) ) ;
#187 = CIRCLE ( 'NONE', #26, 0.5699999999999988409 ) ;
#188 = AXIS2_PLACEMENT_3D ( 'NONE', #90, #156, #41 ) ;
#189 = DATE_AND_TIME ( #82, #65 ) ;
#190 = FACE_OUTER_BOUND ( 'NONE', #54, .T. ) ;
#191 = ADVANCED_FACE ( 'NONE', ( #77 ), #28, .T. ) ;
#192 = DIRECTION ( 'NONE',  ( -3.491481338843133355E-15, 1.224646799147353207E-16, -1.000000000000000000 ) ) ;
#193 = DIRECTION ( 'NONE',  ( 3.491481338843133355E-15, -1.224646799147353207E-16, 1.000000000000000000 ) ) ;
#194 = FACE_OUTER_BOUND ( 'NONE', #105, .T. ) ;
#195 = AXIS2_PLACEMENT_3D ( 'NONE', #59, #175, #23 ) ;
#196 = FACE_BOUND ( 'NONE', #152, .T. ) ;
#197 = DIRECTION ( 'NONE',  ( 0.0000000000000000000, 1.000000000000000000, 0.0000000000000000000 ) ) ;
#198 = MANIFOLD_SOLID_BREP ( 'Corps-Déplacer/Copier1[1]', #69 ) ;
#199 = LOCAL_TIME ( 7, 15, 4.000000000000000000, #3 ) ;
#200 = CALENDAR_DATE ( 2021, 8, 10 ) ;
#201 = CC_DESIGN_APPROVAL ( #129, ( #215 ) ) ;
#202 = COORDINATED_UNIVERSAL_TIME_OFFSET ( 1, 0, .AHEAD. ) ;
#203 = APPROVAL_ROLE ( '' ) ;
#204 = MANIFOLD_SOLID_BREP ( 'Corps-Déplacer/Copier1[2]', #88 ) ;
#205 = ADVANCED_FACE ( 'NONE', ( #111, #58 ), #222, .T. ) ;
#206 = PRODUCT_DEFINITION_SHAPE ( 'NONE', 'NONE',  #215 ) ;
#207 = APPLICATION_PROTOCOL_DEFINITION ( 'international standard', 'config_control_design', 1994, #172 ) ;
#208 = EDGE_LOOP ( 'NONE', ( #173 ) ) ;
#209 = PLANE ( 'NONE',  #20 ) ;
#210 = EDGE_CURVE ( 'NONE', #45, #45, #89, .T. ) ;
#211 = SECURITY_CLASSIFICATION ( '', '', #63 ) ;
#212 = EDGE_LOOP ( 'NONE', ( #55 ) ) ;
#213 = AXIS2_PLACEMENT_3D ( 'NONE', #124, #42, #217 ) ;
#214 = ORIENTED_EDGE ( 'NONE', *, *, #24, .T. ) ;
#215 = PRODUCT_DEFINITION ( 'UNKNOWN', '', #4, #33 ) ;
#216 = ORIENTED_EDGE ( 'NONE', *, *, #110, .T. ) ;
#217 = DIRECTION ( 'NONE',  ( 4.275831445896959482E-31, 1.000000000000000000, 1.224646799147353207E-16 ) ) ;
#218 = LOCAL_TIME ( 7, 15, 4.000000000000000000, #134 ) ;
#219 = DIRECTION ( 'NONE',  ( -4.275831445896958607E-31, -1.000000000000000000, -1.224646799147353207E-16 ) ) ;
#220 = CYLINDRICAL_SURFACE ( 'NONE', #46, 0.5699999999999993960 ) ;
#221 = CARTESIAN_POINT ( 'NONE',  ( 3.142333204958820020E-14, 0.5699999999999988409, 9.000000000000000000 ) ) ;
#222 = CONICAL_SURFACE ( 'NONE', #21, 0.7499999999999975575, 0.5235987755982937086 ) ;
#223 = DIRECTION ( 'NONE',  ( -3.491481338843133355E-15, 1.224646799147353207E-16, -1.000000000000000000 ) ) ;
ENDSEC;
END-ISO-10303-21;
