ISO-10303-21;
HEADER;
FILE_DESCRIPTION (( 'STEP AP203' ),
    '1' );
FILE_NAME ('55365.step',
    '2021-10-08T05:15:03',
    ( '' ),
    ( '' ),
    'SwSTEP 2.0',
    'SolidWorks 2019',
    '' );
FILE_SCHEMA (( 'CONFIG_CONTROL_DESIGN' ));
ENDSEC;

DATA;
#1 = ORIENTED_EDGE ( 'NONE', *, *, #203, .T. ) ;
#2 = CIRCLE ( 'NONE', #7, 0.5650000000000010569 ) ;
#3 = EDGE_LOOP ( 'NONE', ( #101 ) ) ;
#4 = CC_DESIGN_PERSON_AND_ORGANIZATION_ASSIGNMENT ( #129, #202, ( #184 ) ) ;
#5 = CALENDAR_DATE ( 2021, 8, 10 ) ;
#6 = DATE_TIME_ROLE ( 'classification_date' ) ;
#7 = AXIS2_PLACEMENT_3D ( 'NONE', #48, #63, #92 ) ;
#8 = ORIENTED_EDGE ( 'NONE', *, *, #203, .F. ) ;
#9 = CARTESIAN_POINT ( 'NONE',  ( 3.142333204958820651E-14, -2.082055338400569970E-31, 9.000000000000001776 ) ) ;
#10 = CARTESIAN_POINT ( 'NONE',  ( 0.0000000000000000000, 0.0000000000000000000, 0.0000000000000000000 ) ) ;
#11 = CIRCLE ( 'NONE', #120, 0.7499999999999998890 ) ;
#12 = FACE_OUTER_BOUND ( 'NONE', #88, .T. ) ;
#13 = DIRECTION ( 'NONE',  ( -3.491481338843133355E-15, 1.224646799147353207E-16, -1.000000000000000000 ) ) ;
#14 = DIRECTION ( 'NONE',  ( 3.491481338843133355E-15, -1.224646799147353207E-16, 1.000000000000000000 ) ) ;
#15 = APPROVAL_DATE_TIME ( #141, #94 ) ;
#16 = VERTEX_POINT ( 'NONE', #163 ) ;
#17 = PERSON_AND_ORGANIZATION_ROLE ( 'design_owner' ) ;
#18 = EDGE_CURVE ( 'NONE', #137, #137, #221, .T. ) ;
#19 = MECHANICAL_CONTEXT ( 'NONE', #176, 'mechanical' ) ;
#20 = LOCAL_TIME ( 7, 15, 3.000000000000000000, #70 ) ;
#21 = CARTESIAN_POINT ( 'NONE',  ( 3.142333204958820651E-14, 0.5649999999999999467, 9.000000000000001776 ) ) ;
#22 = EDGE_LOOP ( 'NONE', ( #132 ) ) ;
#23 = ADVANCED_FACE ( 'NONE', ( #121 ), #107, .F. ) ;
#24 = LOCAL_TIME ( 7, 15, 3.000000000000000000, #164 ) ;
#25 = ORIENTED_EDGE ( 'NONE', *, *, #218, .T. ) ;
#26 = DIRECTION ( 'NONE',  ( 0.0000000000000000000, 1.000000000000000000, 0.0000000000000000000 ) ) ;
#27 = PRODUCT_DEFINITION_SHAPE ( 'NONE', 'NONE',  #167 ) ;
#28 = DIRECTION ( 'NONE',  ( 3.491481338843133355E-15, -1.224646799147353207E-16, 1.000000000000000000 ) ) ;
#29 = DIRECTION ( 'NONE',  ( 4.275831445896959482E-31, 1.000000000000000000, 1.224646799147353207E-16 ) ) ;
#30 = AXIS2_PLACEMENT_3D ( 'NONE', #123, #124, #79 ) ;
#31 = CYLINDRICAL_SURFACE ( 'NONE', #61, 0.5649999999999999467 ) ;
#32 = FACE_OUTER_BOUND ( 'NONE', #131, .T. ) ;
#33 = CC_DESIGN_PERSON_AND_ORGANIZATION_ASSIGNMENT ( #97, #182, ( #167 ) ) ;
#34 = UNCERTAINTY_MEASURE_WITH_UNIT (LENGTH_MEASURE( 1.000000000000000082E-05 ), #180, 'distance_accuracy_value', 'NONE');
#35 = PERSON_AND_ORGANIZATION_ROLE ( 'classification_officer' ) ;
#36 = CONICAL_SURFACE ( 'NONE', #168, 0.5649999999999988365, 1.029744258676649649 ) ;
#37 = VERTEX_POINT ( 'NONE', #21 ) ;
#38 = AXIS2_PLACEMENT_3D ( 'NONE', #80, #171, #26 ) ;
#39 = PERSON_AND_ORGANIZATION ( #40, #103 ) ;
#40 = PERSON ( 'UNSPECIFIED', 'UNSPECIFIED', 'UNSPECIFIED', ('UNSPECIFIED'), ('UNSPECIFIED'), ('UNSPECIFIED') ) ;
#41 = ORIENTED_EDGE ( 'NONE', *, *, #218, .F. ) ;
#42 = AXIS2_PLACEMENT_3D ( 'NONE', #52, #162, #56 ) ;
#43 = APPROVAL_STATUS ( 'not_yet_approved' ) ;
#44 = ORIENTED_EDGE ( 'NONE', *, *, #213, .F. ) ;
#45 = ORIENTED_EDGE ( 'NONE', *, *, #143, .T. ) ;
#46 = DIRECTION ( 'NONE',  ( 0.0000000000000000000, -1.000000000000000000, 0.0000000000000000000 ) ) ;
#47 = ADVANCED_FACE ( 'NONE', ( #174, #106 ), #195, .T. ) ;
#48 = CARTESIAN_POINT ( 'NONE',  ( 3.142333204958820651E-14, -1.102182119232617911E-15, 9.000000000000001776 ) ) ;
#49 = CARTESIAN_POINT ( 'NONE',  ( 0.0000000000000000000, 0.0000000000000000000, 0.0000000000000000000 ) ) ;
#50 = CARTESIAN_POINT ( 'NONE',  ( 3.254210531801085787E-14, 0.7499999999999963363, 9.320429399400241621 ) ) ;
#51 = ADVANCED_FACE ( 'NONE', ( #196 ), #36, .T. ) ;
#52 = CARTESIAN_POINT ( 'NONE',  ( 0.0000000000000000000, 0.0000000000000000000, 0.0000000000000000000 ) ) ;
#53 = DATE_AND_TIME ( #87, #153 ) ;
#54 =( NAMED_UNIT ( * ) SI_UNIT ( $, .STERADIAN. ) SOLID_ANGLE_UNIT ( ) );
#55 = CALENDAR_DATE ( 2021, 8, 10 ) ;
#56 = DIRECTION ( 'NONE',  ( 1.000000000000000000, 0.0000000000000000000, 0.0000000000000000000 ) ) ;
#57 = AXIS2_PLACEMENT_3D ( 'NONE', #157, #139, #210 ) ;
#58 = APPROVAL_PERSON_ORGANIZATION ( #109, #94, #219 ) ;
#59 = DATE_AND_TIME ( #5, #24 ) ;
#60 = EDGE_LOOP ( 'NONE', ( #41 ) ) ;
#61 = AXIS2_PLACEMENT_3D ( 'NONE', #49, #136, #62 ) ;
#62 = DIRECTION ( 'NONE',  ( 4.275831445896958607E-31, 1.000000000000000000, 1.224646799147353207E-16 ) ) ;
#63 = DIRECTION ( 'NONE',  ( -3.491481338843133355E-15, 1.224646799147353207E-16, -1.000000000000000000 ) ) ;
#64 = FACE_OUTER_BOUND ( 'NONE', #60, .T. ) ;
#65 = CARTESIAN_POINT ( 'NONE',  ( 3.254210531801085787E-14, -1.141423403065439420E-15, 9.320429399400241621 ) ) ;
#66 = AXIS2_PLACEMENT_3D ( 'NONE', #214, #152, #135 ) ;
#67 = CARTESIAN_POINT ( 'NONE',  ( 1.047444401652940007E-13, 4.124339402320052999E-33, 30.00000000000000000 ) ) ;
#68 = APPROVAL_STATUS ( 'not_yet_approved' ) ;
#69 = CARTESIAN_POINT ( 'NONE',  ( 3.142333204958820651E-14, 0.5649999999999999467, 9.000000000000001776 ) ) ;
#70 = COORDINATED_UNIVERSAL_TIME_OFFSET ( 1, 0, .AHEAD. ) ;
#71 = VERTEX_POINT ( 'NONE', #217 ) ;
#72 = DATE_AND_TIME ( #161, #73 ) ;
#73 = LOCAL_TIME ( 7, 15, 3.000000000000000000, #83 ) ;
#74 = EDGE_LOOP ( 'NONE', ( #185 ) ) ;
#75 = ORIENTED_EDGE ( 'NONE', *, *, #192, .F. ) ;
#76 = CARTESIAN_POINT ( 'NONE',  ( 1.185309905797970813E-15, -4.157507491115801786E-17, 0.3394862497505746757 ) ) ;
#77 = CARTESIAN_POINT ( 'NONE',  ( 3.142333204958820651E-14, -2.082055338400569970E-31, 9.000000000000001776 ) ) ;
#78 = DIRECTION ( 'NONE',  ( -4.275831445896958607E-31, -1.000000000000000000, -1.224646799147353207E-16 ) ) ;
#79 = DIRECTION ( 'NONE',  ( 0.0000000000000000000, 1.000000000000000000, 0.0000000000000000000 ) ) ;
#80 = CARTESIAN_POINT ( 'NONE',  ( 1.047444401652940007E-13, -3.673940397442059178E-15, 30.00000000000000000 ) ) ;
#81 = APPROVAL_PERSON_ORGANIZATION ( #85, #170, #144 ) ;
#82 = DESIGN_CONTEXT ( 'detailed design', #187, 'design' ) ;
#83 = COORDINATED_UNIVERSAL_TIME_OFFSET ( 1, 0, .AHEAD. ) ;
#84 = ADVANCED_FACE ( 'NONE', ( #108, #12 ), #31, .T. ) ;
#85 = PERSON_AND_ORGANIZATION ( #40, #103 ) ;
#86 = CC_DESIGN_PERSON_AND_ORGANIZATION_ASSIGNMENT ( #177, #35, ( #111 ) ) ;
#87 = CALENDAR_DATE ( 2021, 8, 10 ) ;
#88 = EDGE_LOOP ( 'NONE', ( #25 ) ) ;
#89 = CLOSED_SHELL ( 'NONE', ( #51, #84, #146 ) ) ;
#90 = CC_DESIGN_APPROVAL ( #179, ( #111 ) ) ;
#91 = CARTESIAN_POINT ( 'NONE',  ( 1.040461438975253740E-13, -3.649447461459112464E-15, 29.80000000000000071 ) ) ;
#92 = DIRECTION ( 'NONE',  ( 0.0000000000000000000, 1.000000000000000000, 0.0000000000000000000 ) ) ;
#93 = DIRECTION ( 'NONE',  ( 3.491481338843133355E-15, -1.224646799147353207E-16, 1.000000000000000000 ) ) ;
#94 = APPROVAL ( #110, 'UNSPECIFIED' ) ;
#95 = DIRECTION ( 'NONE',  ( -3.491481338843133355E-15, 1.224646799147353207E-16, -1.000000000000000000 ) ) ;
#96 = DIRECTION ( 'NONE',  ( -4.275831445896958607E-31, -1.000000000000000000, -1.224646799147353207E-16 ) ) ;
#97 = PERSON_AND_ORGANIZATION ( #40, #103 ) ;
#98 = CONICAL_SURFACE ( 'NONE', #38, 0.5500000000000000444, 0.7853981633974510546 ) ;
#99 = SECURITY_CLASSIFICATION_LEVEL ( 'unclassified' ) ;
#100 = DATE_TIME_ROLE ( 'creation_date' ) ;
#101 = ORIENTED_EDGE ( 'NONE', *, *, #18, .T. ) ;
#102 = ORIENTED_EDGE ( 'NONE', *, *, #143, .F. ) ;
#103 = ORGANIZATION ( 'UNSPECIFIED', 'UNSPECIFIED', '' ) ;
#104 = FACE_BOUND ( 'NONE', #186, .T. ) ;
#105 = DIRECTION ( 'NONE',  ( 4.275831445896958607E-31, 1.000000000000000000, 1.224646799147353207E-16 ) ) ;
#106 = FACE_OUTER_BOUND ( 'NONE', #148, .T. ) ;
#107 = PLANE ( 'NONE',  #147 ) ;
#108 = FACE_OUTER_BOUND ( 'NONE', #74, .T. ) ;
#109 = PERSON_AND_ORGANIZATION ( #40, #103 ) ;
#110 = APPROVAL_STATUS ( 'not_yet_approved' ) ;
#111 = SECURITY_CLASSIFICATION ( '', '', #99 ) ;
#112 = PERSON_AND_ORGANIZATION ( #40, #103 ) ;
#113 = APPLICATION_PROTOCOL_DEFINITION ( 'international standard', 'config_control_design', 1994, #187 ) ;
#114 = APPROVAL_DATE_TIME ( #59, #179 ) ;
#115 = SHAPE_DEFINITION_REPRESENTATION ( #27, #158 ) ;
#116 = EDGE_LOOP ( 'NONE', ( #1 ) ) ;
#117 = AXIS2_PLACEMENT_3D ( 'NONE', #172, #95, #193 ) ;
#118 = ADVANCED_FACE ( 'NONE', ( #104, #32 ), #134, .T. ) ;
#119 = EDGE_LOOP ( 'NONE', ( #102 ) ) ;
#120 = AXIS2_PLACEMENT_3D ( 'NONE', #91, #212, #191 ) ;
#121 = FACE_OUTER_BOUND ( 'NONE', #22, .T. ) ;
#122 = MANIFOLD_SOLID_BREP ( 'Corps-Déplacer/Copier1[1]', #145 ) ;
#123 = CARTESIAN_POINT ( 'NONE',  ( 3.142333204958820651E-14, -1.102182119232617911E-15, 9.000000000000001776 ) ) ;
#124 = DIRECTION ( 'NONE',  ( -3.491481338843133355E-15, 1.224646799147353207E-16, -1.000000000000000000 ) ) ;
#125 = VERTEX_POINT ( 'NONE', #50 ) ;
#126 = CIRCLE ( 'NONE', #66, 0.5500000000000000444 ) ;
#127 = COORDINATED_UNIVERSAL_TIME_OFFSET ( 1, 0, .AHEAD. ) ;
#128 = CC_DESIGN_APPROVAL ( #94, ( #184 ) ) ;
#129 = PERSON_AND_ORGANIZATION ( #40, #103 ) ;
#130 = PERSON_AND_ORGANIZATION_ROLE ( 'design_supplier' ) ;
#131 = EDGE_LOOP ( 'NONE', ( #45 ) ) ;
#132 = ORIENTED_EDGE ( 'NONE', *, *, #192, .T. ) ;
#133 = FACE_BOUND ( 'NONE', #116, .T. ) ;
#134 = CONICAL_SURFACE ( 'NONE', #194, 0.7499999999999975575, 0.5235987755982925984 ) ;
#135 = DIRECTION ( 'NONE',  ( 0.0000000000000000000, 1.000000000000000000, 0.0000000000000000000 ) ) ;
#136 = DIRECTION ( 'NONE',  ( -3.491481338843133355E-15, 1.224646799147353207E-16, -1.000000000000000000 ) ) ;
#137 = VERTEX_POINT ( 'NONE', #215 ) ;
#138 = PRODUCT_RELATED_PRODUCT_CATEGORY ( 'detail', '', ( #197 ) ) ;
#139 = DIRECTION ( 'NONE',  ( -3.491481338843133355E-15, 1.224646799147353207E-16, -1.000000000000000000 ) ) ;
#140 =( GEOMETRIC_REPRESENTATION_CONTEXT ( 3 ) GLOBAL_UNCERTAINTY_ASSIGNED_CONTEXT ( ( #34 ) ) GLOBAL_UNIT_ASSIGNED_CONTEXT ( ( #180, #200, #54 ) ) REPRESENTATION_CONTEXT ( 'NONE', 'WORKASPACE' ) );
#141 = DATE_AND_TIME ( #55, #20 ) ;
#142 = CALENDAR_DATE ( 2021, 8, 10 ) ;
#143 = EDGE_CURVE ( 'NONE', #125, #125, #173, .T. ) ;
#144 = APPROVAL_ROLE ( '' ) ;
#145 = CLOSED_SHELL ( 'NONE', ( #23, #118, #47, #156, #198 ) ) ;
#146 = ADVANCED_FACE ( 'NONE', ( #64 ), #169, .T. ) ;
#147 = AXIS2_PLACEMENT_3D ( 'NONE', #9, #28, #96 ) ;
#148 = EDGE_LOOP ( 'NONE', ( #205 ) ) ;
#149 = EDGE_LOOP ( 'NONE', ( #44 ) ) ;
#150 = AXIS2_PLACEMENT_3D ( 'NONE', #10, #175, #29 ) ;
#151 = FACE_OUTER_BOUND ( 'NONE', #166, .T. ) ;
#152 = DIRECTION ( 'NONE',  ( -3.491481338843133355E-15, 1.224646799147353207E-16, -1.000000000000000000 ) ) ;
#153 = LOCAL_TIME ( 7, 15, 3.000000000000000000, #159 ) ;
#154 = FACE_OUTER_BOUND ( 'NONE', #149, .T. ) ;
#155 = DIRECTION ( 'NONE',  ( -3.408725565287150070E-31, -1.000000000000000000, -9.594709491022182745E-17 ) ) ;
#156 = ADVANCED_FACE ( 'NONE', ( #154, #133 ), #98, .T. ) ;
#157 = CARTESIAN_POINT ( 'NONE',  ( 1.185309905797970813E-15, -4.157507491115801786E-17, 0.3394862497505746757 ) ) ;
#158 = ADVANCED_BREP_SHAPE_REPRESENTATION ( '55365', ( #122, #199, #42 ), #140 ) ;
#159 = COORDINATED_UNIVERSAL_TIME_OFFSET ( 1, 0, .AHEAD. ) ;
#160 = LOCAL_TIME ( 7, 15, 3.000000000000000000, #127 ) ;
#161 = CALENDAR_DATE ( 2021, 8, 10 ) ;
#162 = DIRECTION ( 'NONE',  ( 0.0000000000000000000, 0.0000000000000000000, 1.000000000000000000 ) ) ;
#163 = CARTESIAN_POINT ( 'NONE',  ( 1.047444401652940007E-13, 0.5499999999999963807, 30.00000000000000000 ) ) ;
#164 = COORDINATED_UNIVERSAL_TIME_OFFSET ( 1, 0, .AHEAD. ) ;
#165 = CC_DESIGN_SECURITY_CLASSIFICATION ( #111, ( #184 ) ) ;
#166 = EDGE_LOOP ( 'NONE', ( #8 ) ) ;
#167 = PRODUCT_DEFINITION ( 'UNKNOWN', '', #184, #82 ) ;
#168 = AXIS2_PLACEMENT_3D ( 'NONE', #76, #216, #155 ) ;
#169 = PLANE ( 'NONE',  #189 ) ;
#170 = APPROVAL ( #68, 'UNSPECIFIED' ) ;
#171 = DIRECTION ( 'NONE',  ( -3.491481338843133355E-15, 1.224646799147353207E-16, -1.000000000000000000 ) ) ;
#172 = CARTESIAN_POINT ( 'NONE',  ( 3.254210531801085787E-14, -1.141423403065439420E-15, 9.320429399400241621 ) ) ;
#173 = CIRCLE ( 'NONE', #117, 0.7499999999999975575 ) ;
#174 = FACE_OUTER_BOUND ( 'NONE', #119, .T. ) ;
#175 = DIRECTION ( 'NONE',  ( -3.491481338843133355E-15, 1.224646799147353207E-16, -1.000000000000000000 ) ) ;
#176 = APPLICATION_CONTEXT ( 'configuration controlled 3d designs of mechanical parts and assemblies' ) ;
#177 = PERSON_AND_ORGANIZATION ( #40, #103 ) ;
#178 = VERTEX_POINT ( 'NONE', #69 ) ;
#179 = APPROVAL ( #43, 'UNSPECIFIED' ) ;
#180 =( LENGTH_UNIT ( ) NAMED_UNIT ( * ) SI_UNIT ( .MILLI., .METRE. ) );
#181 = PERSON_AND_ORGANIZATION ( #40, #103 ) ;
#182 = PERSON_AND_ORGANIZATION_ROLE ( 'creator' ) ;
#183 = CC_DESIGN_DATE_AND_TIME_ASSIGNMENT ( #72, #6, ( #111 ) ) ;
#184 = PRODUCT_DEFINITION_FORMATION_WITH_SPECIFIED_SOURCE ( 'ANY', '', #197, .NOT_KNOWN. ) ;
#185 = ORIENTED_EDGE ( 'NONE', *, *, #18, .F. ) ;
#186 = EDGE_LOOP ( 'NONE', ( #75 ) ) ;
#187 = APPLICATION_CONTEXT ( 'configuration controlled 3d designs of mechanical parts and assemblies' ) ;
#188 = CC_DESIGN_PERSON_AND_ORGANIZATION_ASSIGNMENT ( #112, #130, ( #184 ) ) ;
#189 = AXIS2_PLACEMENT_3D ( 'NONE', #77, #14, #78 ) ;
#190 = PLANE ( 'NONE',  #211 ) ;
#191 = DIRECTION ( 'NONE',  ( 0.0000000000000000000, 1.000000000000000000, 0.0000000000000000000 ) ) ;
#192 = EDGE_CURVE ( 'NONE', #178, #178, #2, .T. ) ;
#193 = DIRECTION ( 'NONE',  ( 0.0000000000000000000, 1.000000000000000000, 0.0000000000000000000 ) ) ;
#194 = AXIS2_PLACEMENT_3D ( 'NONE', #65, #93, #46 ) ;
#195 = CYLINDRICAL_SURFACE ( 'NONE', #150, 0.7499999999999986677 ) ;
#196 = FACE_OUTER_BOUND ( 'NONE', #3, .T. ) ;
#197 = PRODUCT ( '55365', '55365', '', ( #19 ) ) ;
#198 = ADVANCED_FACE ( 'NONE', ( #151 ), #190, .F. ) ;
#199 = MANIFOLD_SOLID_BREP ( 'Corps-Déplacer/Copier1[2]', #89 ) ;
#200 =( NAMED_UNIT ( * ) PLANE_ANGLE_UNIT ( ) SI_UNIT ( $, .RADIAN. ) );
#201 = APPROVAL_PERSON_ORGANIZATION ( #39, #179, #208 ) ;
#202 = PERSON_AND_ORGANIZATION_ROLE ( 'creator' ) ;
#203 = EDGE_CURVE ( 'NONE', #16, #16, #126, .T. ) ;
#204 = CIRCLE ( 'NONE', #30, 0.5650000000000010569 ) ;
#205 = ORIENTED_EDGE ( 'NONE', *, *, #213, .T. ) ;
#206 = CC_DESIGN_DATE_AND_TIME_ASSIGNMENT ( #53, #100, ( #167 ) ) ;
#207 = CC_DESIGN_APPROVAL ( #170, ( #167 ) ) ;
#208 = APPROVAL_ROLE ( '' ) ;
#209 = CC_DESIGN_PERSON_AND_ORGANIZATION_ASSIGNMENT ( #181, #17, ( #197 ) ) ;
#210 = DIRECTION ( 'NONE',  ( 3.408725565287150070E-31, 1.000000000000000000, 9.594709491022182745E-17 ) ) ;
#211 = AXIS2_PLACEMENT_3D ( 'NONE', #67, #13, #105 ) ;
#212 = DIRECTION ( 'NONE',  ( -3.491481338843133355E-15, 1.224646799147353207E-16, -1.000000000000000000 ) ) ;
#213 = EDGE_CURVE ( 'NONE', #71, #71, #11, .T. ) ;
#214 = CARTESIAN_POINT ( 'NONE',  ( 1.047444401652940007E-13, -3.673940397442059178E-15, 30.00000000000000000 ) ) ;
#215 = CARTESIAN_POINT ( 'NONE',  ( 1.185309905797971010E-15, 0.5649999999999988365, 0.3394862497505747312 ) ) ;
#216 = DIRECTION ( 'NONE',  ( 3.491481338843133355E-15, -1.224646799147353207E-16, 1.000000000000000000 ) ) ;
#217 = CARTESIAN_POINT ( 'NONE',  ( 1.040461438975253740E-13, 0.7499999999999962252, 29.80000000000000071 ) ) ;
#218 = EDGE_CURVE ( 'NONE', #37, #37, #204, .T. ) ;
#219 = APPROVAL_ROLE ( '' ) ;
#220 = APPROVAL_DATE_TIME ( #223, #170 ) ;
#221 = CIRCLE ( 'NONE', #57, 0.5649999999999988365 ) ;
#222 = APPLICATION_PROTOCOL_DEFINITION ( 'international standard', 'config_control_design', 1994, #176 ) ;
#223 = DATE_AND_TIME ( #142, #160 ) ;
ENDSEC;
END-ISO-10303-21;
