ISO-10303-21;
HEADER;
FILE_DESCRIPTION (( 'STEP AP203' ),
    '1' );
FILE_NAME ('55364.step',
    '2021-10-08T05:15:03',
    ( '' ),
    ( '' ),
    'SwSTEP 2.0',
    'SolidWorks 2019',
    '' );
FILE_SCHEMA (( 'CONFIG_CONTROL_DESIGN' ));
ENDSEC;

DATA;
#1 = CC_DESIGN_APPROVAL ( #110, ( #196 ) ) ;
#2 =( NAMED_UNIT ( * ) PLANE_ANGLE_UNIT ( ) SI_UNIT ( $, .RADIAN. ) );
#3 = CARTESIAN_POINT ( 'NONE',  ( 0.0000000000000000000, 0.0000000000000000000, 0.0000000000000000000 ) ) ;
#4 = CARTESIAN_POINT ( 'NONE',  ( 1.047444401652940007E-13, -3.673940397442059178E-15, 30.00000000000000000 ) ) ;
#5 = DIRECTION ( 'NONE',  ( 0.0000000000000000000, 1.000000000000000000, 0.0000000000000000000 ) ) ;
#6 = FACE_OUTER_BOUND ( 'NONE', #28, .T. ) ;
#7 = CALENDAR_DATE ( 2021, 8, 10 ) ;
#8 = COORDINATED_UNIVERSAL_TIME_OFFSET ( 1, 0, .AHEAD. ) ;
#9 = AXIS2_PLACEMENT_3D ( 'NONE', #3, #171, #18 ) ;
#10 = CALENDAR_DATE ( 2021, 8, 10 ) ;
#11 = AXIS2_PLACEMENT_3D ( 'NONE', #4, #68, #5 ) ;
#12 = EDGE_LOOP ( 'NONE', ( #47 ) ) ;
#13 = EDGE_CURVE ( 'NONE', #16, #16, #146, .T. ) ;
#14 = CIRCLE ( 'NONE', #176, 0.7499999999999998890 ) ;
#15 = PLANE ( 'NONE',  #221 ) ;
#16 = VERTEX_POINT ( 'NONE', #69 ) ;
#17 = ADVANCED_FACE ( 'NONE', ( #205 ), #15, .T. ) ;
#18 = DIRECTION ( 'NONE',  ( 4.275831445896958607E-31, 1.000000000000000000, 1.224646799147353207E-16 ) ) ;
#19 = VERTEX_POINT ( 'NONE', #187 ) ;
#20 = CARTESIAN_POINT ( 'NONE',  ( 0.0000000000000000000, 0.0000000000000000000, 0.0000000000000000000 ) ) ;
#21 = CYLINDRICAL_SURFACE ( 'NONE', #9, 0.5599999999999997202 ) ;
#22 = CONICAL_SURFACE ( 'NONE', #145, 0.5500000000000000444, 0.7853981633974510546 ) ;
#23 = DATE_AND_TIME ( #40, #94 ) ;
#24 = APPROVAL_DATE_TIME ( #72, #217 ) ;
#25 = APPROVAL_STATUS ( 'not_yet_approved' ) ;
#26 = CONICAL_SURFACE ( 'NONE', #184, 0.5599999999999989431, 1.029744258676649649 ) ;
#27 = ORIENTED_EDGE ( 'NONE', *, *, #45, .T. ) ;
#28 = EDGE_LOOP ( 'NONE', ( #168 ) ) ;
#29 = ORIENTED_EDGE ( 'NONE', *, *, #13, .T. ) ;
#30 = EDGE_LOOP ( 'NONE', ( #130 ) ) ;
#31 = EDGE_LOOP ( 'NONE', ( #203 ) ) ;
#32 = DIRECTION ( 'NONE',  ( 0.0000000000000000000, 1.000000000000000000, 0.0000000000000000000 ) ) ;
#33 = CC_DESIGN_SECURITY_CLASSIFICATION ( #182, ( #157 ) ) ;
#34 = FACE_OUTER_BOUND ( 'NONE', #101, .T. ) ;
#35 = DIRECTION ( 'NONE',  ( -3.491481338843133355E-15, 1.224646799147353207E-16, -1.000000000000000000 ) ) ;
#36 = EDGE_CURVE ( 'NONE', #154, #154, #90, .T. ) ;
#37 = CARTESIAN_POINT ( 'NONE',  ( 1.047444401652940007E-13, 4.124339402320052999E-33, 30.00000000000000000 ) ) ;
#38 = VERTEX_POINT ( 'NONE', #84 ) ;
#39 = APPROVAL_PERSON_ORGANIZATION ( #127, #110, #218 ) ;
#40 = CALENDAR_DATE ( 2021, 8, 10 ) ;
#41 = COORDINATED_UNIVERSAL_TIME_OFFSET ( 1, 0, .AHEAD. ) ;
#42 = PERSON_AND_ORGANIZATION_ROLE ( 'classification_officer' ) ;
#43 = AXIS2_PLACEMENT_3D ( 'NONE', #37, #175, #85 ) ;
#44 = COORDINATED_UNIVERSAL_TIME_OFFSET ( 1, 0, .AHEAD. ) ;
#45 = EDGE_CURVE ( 'NONE', #51, #51, #59, .T. ) ;
#46 = AXIS2_PLACEMENT_3D ( 'NONE', #105, #134, #54 ) ;
#47 = ORIENTED_EDGE ( 'NONE', *, *, #13, .F. ) ;
#48 = MANIFOLD_SOLID_BREP ( 'Corps-Déplacer/Copier1[1]', #49 ) ;
#49 = CLOSED_SHELL ( 'NONE', ( #136, #214, #149, #91, #123 ) ) ;
#50 = FACE_OUTER_BOUND ( 'NONE', #31, .T. ) ;
#51 = VERTEX_POINT ( 'NONE', #137 ) ;
#52 = CC_DESIGN_PERSON_AND_ORGANIZATION_ASSIGNMENT ( #142, #159, ( #196 ) ) ;
#53 = LOCAL_TIME ( 7, 15, 3.000000000000000000, #197 ) ;
#54 = DIRECTION ( 'NONE',  ( -4.275831445896958607E-31, -1.000000000000000000, -1.224646799147353207E-16 ) ) ;
#55 = PLANE ( 'NONE',  #46 ) ;
#56 = CARTESIAN_POINT ( 'NONE',  ( 3.257234243337362660E-14, 0.7499999999999963363, 9.329089653438085605 ) ) ;
#57 = APPROVAL_STATUS ( 'not_yet_approved' ) ;
#58 = PERSON_AND_ORGANIZATION ( #188, #194 ) ;
#59 = CIRCLE ( 'NONE', #140, 0.5599999999999989431 ) ;
#60 = DIRECTION ( 'NONE',  ( -4.275831445896958607E-31, -1.000000000000000000, -1.224646799147353207E-16 ) ) ;
#61 = EDGE_LOOP ( 'NONE', ( #132 ) ) ;
#62 = DIRECTION ( 'NONE',  ( -3.491481338843133355E-15, 1.224646799147353207E-16, -1.000000000000000000 ) ) ;
#63 = EDGE_LOOP ( 'NONE', ( #150 ) ) ;
#64 = AXIS2_PLACEMENT_3D ( 'NONE', #82, #213, #158 ) ;
#65 = DIRECTION ( 'NONE',  ( 0.0000000000000000000, 1.000000000000000000, 0.0000000000000000000 ) ) ;
#66 = CARTESIAN_POINT ( 'NONE',  ( 1.040461438975253740E-13, -3.649447461459112464E-15, 29.80000000000000071 ) ) ;
#67 = APPROVAL ( #25, 'UNSPECIFIED' ) ;
#68 = DIRECTION ( 'NONE',  ( -3.491481338843133355E-15, 1.224646799147353207E-16, -1.000000000000000000 ) ) ;
#69 = CARTESIAN_POINT ( 'NONE',  ( 3.142333204958820020E-14, 0.5599999999999992761, 9.000000000000000000 ) ) ;
#70 = PERSON_AND_ORGANIZATION ( #188, #194 ) ;
#71 = CC_DESIGN_PERSON_AND_ORGANIZATION_ASSIGNMENT ( #180, #162, ( #157 ) ) ;
#72 = DATE_AND_TIME ( #7, #81 ) ;
#73 = APPLICATION_CONTEXT ( 'configuration controlled 3d designs of mechanical parts and assemblies' ) ;
#74 = PERSON_AND_ORGANIZATION_ROLE ( 'design_owner' ) ;
#75 = APPROVAL_DATE_TIME ( #112, #67 ) ;
#76 = CIRCLE ( 'NONE', #11, 0.5500000000000000444 ) ;
#77 = DIRECTION ( 'NONE',  ( 3.439160614977213574E-31, 1.000000000000000000, 9.680376540049165573E-17 ) ) ;
#78 = CARTESIAN_POINT ( 'NONE',  ( 3.142333204958820020E-14, -1.102182119232617714E-15, 9.000000000000000000 ) ) ;
#79 = CARTESIAN_POINT ( 'NONE',  ( 1.174820437605068332E-15, -4.120715389424511745E-17, 0.3364819466554368477 ) ) ;
#80 = VERTEX_POINT ( 'NONE', #56 ) ;
#81 = LOCAL_TIME ( 7, 15, 3.000000000000000000, #8 ) ;
#82 = CARTESIAN_POINT ( 'NONE',  ( 3.257234243337362660E-14, -1.142483978304164267E-15, 9.329089653438085605 ) ) ;
#83 = DESIGN_CONTEXT ( 'detailed design', #73, 'design' ) ;
#84 = CARTESIAN_POINT ( 'NONE',  ( 1.047444401652940007E-13, 0.5499999999999963807, 30.00000000000000000 ) ) ;
#85 = DIRECTION ( 'NONE',  ( 4.275831445896958607E-31, 1.000000000000000000, 1.224646799147353207E-16 ) ) ;
#86 = AXIS2_PLACEMENT_3D ( 'NONE', #78, #62, #95 ) ;
#87 = FACE_BOUND ( 'NONE', #12, .T. ) ;
#88 = APPROVAL_STATUS ( 'not_yet_approved' ) ;
#89 = APPLICATION_PROTOCOL_DEFINITION ( 'international standard', 'config_control_design', 1994, #220 ) ;
#90 = CIRCLE ( 'NONE', #211, 0.5600000000000003864 ) ;
#91 = ADVANCED_FACE ( 'NONE', ( #148, #155 ), #22, .T. ) ;
#92 = APPROVAL_ROLE ( '' ) ;
#93 = PRODUCT_DEFINITION_SHAPE ( 'NONE', 'NONE',  #196 ) ;
#94 = LOCAL_TIME ( 7, 15, 3.000000000000000000, #44 ) ;
#95 = DIRECTION ( 'NONE',  ( 0.0000000000000000000, 1.000000000000000000, 0.0000000000000000000 ) ) ;
#96 = ORIENTED_EDGE ( 'NONE', *, *, #98, .F. ) ;
#97 = ORIENTED_EDGE ( 'NONE', *, *, #36, .F. ) ;
#98 = EDGE_CURVE ( 'NONE', #19, #19, #14, .T. ) ;
#99 = LOCAL_TIME ( 7, 15, 3.000000000000000000, #41 ) ;
#100 = EDGE_LOOP ( 'NONE', ( #29 ) ) ;
#101 = EDGE_LOOP ( 'NONE', ( #114 ) ) ;
#102 = CYLINDRICAL_SURFACE ( 'NONE', #107, 0.7499999999999986677 ) ;
#103 = AXIS2_PLACEMENT_3D ( 'NONE', #192, #106, #65 ) ;
#104 = FACE_OUTER_BOUND ( 'NONE', #100, .T. ) ;
#105 = CARTESIAN_POINT ( 'NONE',  ( 3.142333204958820020E-14, 4.199327391453188165E-33, 9.000000000000000000 ) ) ;
#106 = DIRECTION ( 'NONE',  ( -3.491481338843133355E-15, 1.224646799147353207E-16, -1.000000000000000000 ) ) ;
#107 = AXIS2_PLACEMENT_3D ( 'NONE', #20, #156, #208 ) ;
#108 = CALENDAR_DATE ( 2021, 8, 10 ) ;
#109 = DATE_AND_TIME ( #108, #53 ) ;
#110 = APPROVAL ( #57, 'UNSPECIFIED' ) ;
#111 = PERSON_AND_ORGANIZATION ( #188, #194 ) ;
#112 = DATE_AND_TIME ( #10, #153 ) ;
#113 = ORIENTED_EDGE ( 'NONE', *, *, #165, .T. ) ;
#114 = ORIENTED_EDGE ( 'NONE', *, *, #36, .T. ) ;
#115 = DIRECTION ( 'NONE',  ( 3.491481338843133355E-15, -1.224646799147353207E-16, 1.000000000000000000 ) ) ;
#116 = CARTESIAN_POINT ( 'NONE',  ( 1.174820437605068332E-15, -4.120715389424511745E-17, 0.3364819466554368477 ) ) ;
#117 = MANIFOLD_SOLID_BREP ( 'Corps-Déplacer/Copier1[2]', #206 ) ;
#118 =( LENGTH_UNIT ( ) NAMED_UNIT ( * ) SI_UNIT ( .MILLI., .METRE. ) );
#119 = DIRECTION ( 'NONE',  ( -3.491481338843133355E-15, 1.224646799147353207E-16, -1.000000000000000000 ) ) ;
#120 = APPROVAL_PERSON_ORGANIZATION ( #219, #67, #200 ) ;
#121 = CARTESIAN_POINT ( 'NONE',  ( 0.0000000000000000000, 0.0000000000000000000, 0.0000000000000000000 ) ) ;
#122 = DATE_AND_TIME ( #160, #99 ) ;
#123 = ADVANCED_FACE ( 'NONE', ( #186 ), #190, .F. ) ;
#124 = DIRECTION ( 'NONE',  ( 0.0000000000000000000, 0.0000000000000000000, 1.000000000000000000 ) ) ;
#125 = COORDINATED_UNIVERSAL_TIME_OFFSET ( 1, 0, .AHEAD. ) ;
#126 = AXIS2_PLACEMENT_3D ( 'NONE', #121, #124, #139 ) ;
#127 = PERSON_AND_ORGANIZATION ( #188, #194 ) ;
#128 = CC_DESIGN_PERSON_AND_ORGANIZATION_ASSIGNMENT ( #58, #179, ( #157 ) ) ;
#129 = CARTESIAN_POINT ( 'NONE',  ( 3.142333204958820020E-14, -1.102182119232617714E-15, 9.000000000000000000 ) ) ;
#130 = ORIENTED_EDGE ( 'NONE', *, *, #178, .T. ) ;
#131 = PRODUCT ( '55364', '55364', '', ( #215 ) ) ;
#132 = ORIENTED_EDGE ( 'NONE', *, *, #165, .F. ) ;
#133 =( GEOMETRIC_REPRESENTATION_CONTEXT ( 3 ) GLOBAL_UNCERTAINTY_ASSIGNED_CONTEXT ( ( #204 ) ) GLOBAL_UNIT_ASSIGNED_CONTEXT ( ( #118, #2, #216 ) ) REPRESENTATION_CONTEXT ( 'NONE', 'WORKASPACE' ) );
#134 = DIRECTION ( 'NONE',  ( 3.491481338843133355E-15, -1.224646799147353207E-16, 1.000000000000000000 ) ) ;
#135 = FACE_OUTER_BOUND ( 'NONE', #30, .T. ) ;
#136 = ADVANCED_FACE ( 'NONE', ( #104 ), #55, .F. ) ;
#137 = CARTESIAN_POINT ( 'NONE',  ( 1.174820437605068530E-15, 0.5599999999999989431, 0.3364819466554369032 ) ) ;
#138 = ADVANCED_BREP_SHAPE_REPRESENTATION ( '55364', ( #48, #117, #126 ), #133 ) ;
#139 = DIRECTION ( 'NONE',  ( 1.000000000000000000, 0.0000000000000000000, 0.0000000000000000000 ) ) ;
#140 = AXIS2_PLACEMENT_3D ( 'NONE', #79, #152, #77 ) ;
#141 = PERSON_AND_ORGANIZATION ( #188, #194 ) ;
#142 = PERSON_AND_ORGANIZATION ( #188, #194 ) ;
#143 = CC_DESIGN_PERSON_AND_ORGANIZATION_ASSIGNMENT ( #141, #74, ( #131 ) ) ;
#144 = APPROVAL_DATE_TIME ( #23, #110 ) ;
#145 = AXIS2_PLACEMENT_3D ( 'NONE', #174, #35, #172 ) ;
#146 = CIRCLE ( 'NONE', #86, 0.5600000000000003864 ) ;
#147 = EDGE_LOOP ( 'NONE', ( #27 ) ) ;
#148 = FACE_OUTER_BOUND ( 'NONE', #166, .T. ) ;
#149 = ADVANCED_FACE ( 'NONE', ( #50, #6 ), #102, .T. ) ;
#150 = ORIENTED_EDGE ( 'NONE', *, *, #45, .F. ) ;
#151 = CC_DESIGN_APPROVAL ( #67, ( #157 ) ) ;
#152 = DIRECTION ( 'NONE',  ( -3.491481338843133355E-15, 1.224646799147353207E-16, -1.000000000000000000 ) ) ;
#153 = LOCAL_TIME ( 7, 15, 3.000000000000000000, #125 ) ;
#154 = VERTEX_POINT ( 'NONE', #209 ) ;
#155 = FACE_BOUND ( 'NONE', #183, .T. ) ;
#156 = DIRECTION ( 'NONE',  ( -3.491481338843133355E-15, 1.224646799147353207E-16, -1.000000000000000000 ) ) ;
#157 = PRODUCT_DEFINITION_FORMATION_WITH_SPECIFIED_SOURCE ( 'ANY', '', #131, .NOT_KNOWN. ) ;
#158 = DIRECTION ( 'NONE',  ( 0.0000000000000000000, -1.000000000000000000, 0.0000000000000000000 ) ) ;
#159 = PERSON_AND_ORGANIZATION_ROLE ( 'creator' ) ;
#160 = CALENDAR_DATE ( 2021, 8, 10 ) ;
#161 = SHAPE_DEFINITION_REPRESENTATION ( #93, #138 ) ;
#162 = PERSON_AND_ORGANIZATION_ROLE ( 'creator' ) ;
#163 = CC_DESIGN_DATE_AND_TIME_ASSIGNMENT ( #109, #181, ( #182 ) ) ;
#164 = CARTESIAN_POINT ( 'NONE',  ( 3.142333204958820020E-14, 4.199327391453188165E-33, 9.000000000000000000 ) ) ;
#165 = EDGE_CURVE ( 'NONE', #38, #38, #76, .T. ) ;
#166 = EDGE_LOOP ( 'NONE', ( #96 ) ) ;
#167 = CIRCLE ( 'NONE', #103, 0.7499999999999975575 ) ;
#168 = ORIENTED_EDGE ( 'NONE', *, *, #98, .T. ) ;
#169 = ADVANCED_FACE ( 'NONE', ( #170 ), #26, .T. ) ;
#170 = FACE_OUTER_BOUND ( 'NONE', #147, .T. ) ;
#171 = DIRECTION ( 'NONE',  ( -3.491481338843133355E-15, 1.224646799147353207E-16, -1.000000000000000000 ) ) ;
#172 = DIRECTION ( 'NONE',  ( 0.0000000000000000000, 1.000000000000000000, 0.0000000000000000000 ) ) ;
#173 = PRODUCT_RELATED_PRODUCT_CATEGORY ( 'detail', '', ( #131 ) ) ;
#174 = CARTESIAN_POINT ( 'NONE',  ( 1.047444401652940007E-13, -3.673940397442059178E-15, 30.00000000000000000 ) ) ;
#175 = DIRECTION ( 'NONE',  ( -3.491481338843133355E-15, 1.224646799147353207E-16, -1.000000000000000000 ) ) ;
#176 = AXIS2_PLACEMENT_3D ( 'NONE', #66, #119, #32 ) ;
#177 = APPLICATION_PROTOCOL_DEFINITION ( 'international standard', 'config_control_design', 1994, #73 ) ;
#178 = EDGE_CURVE ( 'NONE', #80, #80, #167, .T. ) ;
#179 = PERSON_AND_ORGANIZATION_ROLE ( 'design_supplier' ) ;
#180 = PERSON_AND_ORGANIZATION ( #188, #194 ) ;
#181 = DATE_TIME_ROLE ( 'classification_date' ) ;
#182 = SECURITY_CLASSIFICATION ( '', '', #195 ) ;
#183 = EDGE_LOOP ( 'NONE', ( #113 ) ) ;
#184 = AXIS2_PLACEMENT_3D ( 'NONE', #116, #115, #212 ) ;
#185 = CC_DESIGN_DATE_AND_TIME_ASSIGNMENT ( #122, #199, ( #196 ) ) ;
#186 = FACE_OUTER_BOUND ( 'NONE', #61, .T. ) ;
#187 = CARTESIAN_POINT ( 'NONE',  ( 1.040461438975253740E-13, 0.7499999999999962252, 29.80000000000000071 ) ) ;
#188 = PERSON ( 'UNSPECIFIED', 'UNSPECIFIED', 'UNSPECIFIED', ('UNSPECIFIED'), ('UNSPECIFIED'), ('UNSPECIFIED') ) ;
#189 = APPROVAL_PERSON_ORGANIZATION ( #111, #217, #92 ) ;
#190 = PLANE ( 'NONE',  #43 ) ;
#191 = FACE_OUTER_BOUND ( 'NONE', #63, .T. ) ;
#192 = CARTESIAN_POINT ( 'NONE',  ( 3.257234243337362660E-14, -1.142483978304164267E-15, 9.329089653438085605 ) ) ;
#193 = ADVANCED_FACE ( 'NONE', ( #191, #34 ), #21, .T. ) ;
#194 = ORGANIZATION ( 'UNSPECIFIED', 'UNSPECIFIED', '' ) ;
#195 = SECURITY_CLASSIFICATION_LEVEL ( 'unclassified' ) ;
#196 = PRODUCT_DEFINITION ( 'UNKNOWN', '', #157, #83 ) ;
#197 = COORDINATED_UNIVERSAL_TIME_OFFSET ( 1, 0, .AHEAD. ) ;
#198 = CONICAL_SURFACE ( 'NONE', #64, 0.7499999999999975575, 0.5235987755982931535 ) ;
#199 = DATE_TIME_ROLE ( 'creation_date' ) ;
#200 = APPROVAL_ROLE ( '' ) ;
#201 = DIRECTION ( 'NONE',  ( -3.491481338843133355E-15, 1.224646799147353207E-16, -1.000000000000000000 ) ) ;
#202 = CC_DESIGN_APPROVAL ( #217, ( #182 ) ) ;
#203 = ORIENTED_EDGE ( 'NONE', *, *, #178, .F. ) ;
#204 = UNCERTAINTY_MEASURE_WITH_UNIT (LENGTH_MEASURE( 1.000000000000000082E-05 ), #118, 'distance_accuracy_value', 'NONE');
#205 = FACE_OUTER_BOUND ( 'NONE', #222, .T. ) ;
#206 = CLOSED_SHELL ( 'NONE', ( #169, #193, #17 ) ) ;
#207 = DIRECTION ( 'NONE',  ( 0.0000000000000000000, 1.000000000000000000, 0.0000000000000000000 ) ) ;
#208 = DIRECTION ( 'NONE',  ( 4.275831445896959482E-31, 1.000000000000000000, 1.224646799147353207E-16 ) ) ;
#209 = CARTESIAN_POINT ( 'NONE',  ( 3.142333204958820020E-14, 0.5599999999999992761, 9.000000000000000000 ) ) ;
#210 = CC_DESIGN_PERSON_AND_ORGANIZATION_ASSIGNMENT ( #70, #42, ( #182 ) ) ;
#211 = AXIS2_PLACEMENT_3D ( 'NONE', #129, #201, #207 ) ;
#212 = DIRECTION ( 'NONE',  ( -3.439160614977213574E-31, -1.000000000000000000, -9.680376540049165573E-17 ) ) ;
#213 = DIRECTION ( 'NONE',  ( 3.491481338843133355E-15, -1.224646799147353207E-16, 1.000000000000000000 ) ) ;
#214 = ADVANCED_FACE ( 'NONE', ( #87, #135 ), #198, .T. ) ;
#215 = MECHANICAL_CONTEXT ( 'NONE', #220, 'mechanical' ) ;
#216 =( NAMED_UNIT ( * ) SI_UNIT ( $, .STERADIAN. ) SOLID_ANGLE_UNIT ( ) );
#217 = APPROVAL ( #88, 'UNSPECIFIED' ) ;
#218 = APPROVAL_ROLE ( '' ) ;
#219 = PERSON_AND_ORGANIZATION ( #188, #194 ) ;
#220 = APPLICATION_CONTEXT ( 'configuration controlled 3d designs of mechanical parts and assemblies' ) ;
#221 = AXIS2_PLACEMENT_3D ( 'NONE', #164, #223, #60 ) ;
#222 = EDGE_LOOP ( 'NONE', ( #97 ) ) ;
#223 = DIRECTION ( 'NONE',  ( 3.491481338843133355E-15, -1.224646799147353207E-16, 1.000000000000000000 ) ) ;
ENDSEC;
END-ISO-10303-21;
