ISO-10303-21;
HEADER;
FILE_DESCRIPTION (( 'STEP AP203' ),
    '1' );
FILE_NAME ('55363.step',
    '2021-10-08T05:15:02',
    ( '' ),
    ( '' ),
    'SwSTEP 2.0',
    'SolidWorks 2019',
    '' );
FILE_SCHEMA (( 'CONFIG_CONTROL_DESIGN' ));
ENDSEC;

DATA;
#1 = EDGE_LOOP ( 'NONE', ( #137 ) ) ;
#2 = SHAPE_DEFINITION_REPRESENTATION ( #143, #33 ) ;
#3 = ORIENTED_EDGE ( 'NONE', *, *, #39, .F. ) ;
#4 = AXIS2_PLACEMENT_3D ( 'NONE', #115, #183, #63 ) ;
#5 = PLANE ( 'NONE',  #135 ) ;
#6 = CARTESIAN_POINT ( 'NONE',  ( 3.260257954873640795E-14, -1.143544553542889311E-15, 9.337749907475931366 ) ) ;
#7 = CARTESIAN_POINT ( 'NONE',  ( 3.142333204958820651E-14, -1.102182119232617911E-15, 9.000000000000001776 ) ) ;
#8 = AXIS2_PLACEMENT_3D ( 'NONE', #82, #168, #149 ) ;
#9 = CC_DESIGN_PERSON_AND_ORGANIZATION_ASSIGNMENT ( #52, #153, ( #83 ) ) ;
#10 = DIRECTION ( 'NONE',  ( 0.0000000000000000000, 1.000000000000000000, 0.0000000000000000000 ) ) ;
#11 = APPROVAL_STATUS ( 'not_yet_approved' ) ;
#12 = COORDINATED_UNIVERSAL_TIME_OFFSET ( 1, 0, .AHEAD. ) ;
#13 = EDGE_CURVE ( 'NONE', #43, #43, #89, .T. ) ;
#14 = VERTEX_POINT ( 'NONE', #87 ) ;
#15 = AXIS2_PLACEMENT_3D ( 'NONE', #177, #144, #25 ) ;
#16 = ORGANIZATION ( 'UNSPECIFIED', 'UNSPECIFIED', '' ) ;
#17 = ORIENTED_EDGE ( 'NONE', *, *, #13, .F. ) ;
#18 = ADVANCED_FACE ( 'NONE', ( #47 ), #5, .T. ) ;
#19 = CALENDAR_DATE ( 2021, 8, 10 ) ;
#20 = ORIENTED_EDGE ( 'NONE', *, *, #167, .F. ) ;
#21 = APPROVAL_DATE_TIME ( #60, #105 ) ;
#22 = DIRECTION ( 'NONE',  ( 4.275831445896958607E-31, 1.000000000000000000, 1.224646799147353207E-16 ) ) ;
#23 = PERSON_AND_ORGANIZATION ( #127, #16 ) ;
#24 = CLOSED_SHELL ( 'NONE', ( #67, #196, #122, #204, #178 ) ) ;
#25 = DIRECTION ( 'NONE',  ( -4.275831445896958607E-31, -1.000000000000000000, -1.224646799147353207E-16 ) ) ;
#26 = PRODUCT ( '55363', '55363', '', ( #75 ) ) ;
#27 = AXIS2_PLACEMENT_3D ( 'NONE', #219, #73, #106 ) ;
#28 = AXIS2_PLACEMENT_3D ( 'NONE', #65, #64, #146 ) ;
#29 = FACE_OUTER_BOUND ( 'NONE', #74, .T. ) ;
#30 = CYLINDRICAL_SURFACE ( 'NONE', #49, 0.7499999999999986677 ) ;
#31 = APPROVAL_ROLE ( '' ) ;
#32 = PERSON_AND_ORGANIZATION ( #127, #16 ) ;
#33 = ADVANCED_BREP_SHAPE_REPRESENTATION ( '55363', ( #121, #197, #27 ), #147 ) ;
#34 = EDGE_LOOP ( 'NONE', ( #51 ) ) ;
#35 = LOCAL_TIME ( 7, 15, 2.000000000000000000, #157 ) ;
#36 = PERSON_AND_ORGANIZATION_ROLE ( 'creator' ) ;
#37 = APPROVAL_ROLE ( '' ) ;
#38 = EDGE_LOOP ( 'NONE', ( #140 ) ) ;
#39 = EDGE_CURVE ( 'NONE', #102, #102, #113, .T. ) ;
#40 = CONICAL_SURFACE ( 'NONE', #90, 0.5549999999999989386, 1.029744258676649649 ) ;
#41 = AXIS2_PLACEMENT_3D ( 'NONE', #99, #195, #94 ) ;
#42 = ORIENTED_EDGE ( 'NONE', *, *, #156, .T. ) ;
#43 = VERTEX_POINT ( 'NONE', #110 ) ;
#44 = ADVANCED_FACE ( 'NONE', ( #176, #181 ), #217, .T. ) ;
#45 = DIRECTION ( 'NONE',  ( -3.470144043940971932E-31, -1.000000000000000000, -9.767587139509067055E-17 ) ) ;
#46 = DATE_TIME_ROLE ( 'classification_date' ) ;
#47 = FACE_OUTER_BOUND ( 'NONE', #172, .T. ) ;
#48 = CC_DESIGN_PERSON_AND_ORGANIZATION_ASSIGNMENT ( #203, #55, ( #170 ) ) ;
#49 = AXIS2_PLACEMENT_3D ( 'NONE', #210, #212, #79 ) ;
#50 = DIRECTION ( 'NONE',  ( -3.491481338843133355E-15, 1.224646799147353207E-16, -1.000000000000000000 ) ) ;
#51 = ORIENTED_EDGE ( 'NONE', *, *, #167, .T. ) ;
#52 = PERSON_AND_ORGANIZATION ( #127, #16 ) ;
#53 = APPROVAL_PERSON_ORGANIZATION ( #32, #84, #37 ) ;
#54 = CC_DESIGN_APPROVAL ( #105, ( #170 ) ) ;
#55 = PERSON_AND_ORGANIZATION_ROLE ( 'classification_officer' ) ;
#56 = CC_DESIGN_DATE_AND_TIME_ASSIGNMENT ( #93, #46, ( #170 ) ) ;
#57 = EDGE_LOOP ( 'NONE', ( #42 ) ) ;
#58 = CARTESIAN_POINT ( 'NONE',  ( 1.047444401652940007E-13, 0.5499999999999963807, 30.00000000000000000 ) ) ;
#59 = VERTEX_POINT ( 'NONE', #71 ) ;
#60 = DATE_AND_TIME ( #159, #69 ) ;
#61 = ORIENTED_EDGE ( 'NONE', *, *, #13, .T. ) ;
#62 = LOCAL_TIME ( 7, 15, 2.000000000000000000, #12 ) ;
#63 = DIRECTION ( 'NONE',  ( 3.470144043940971932E-31, 1.000000000000000000, 9.767587139509067055E-17 ) ) ;
#64 = DIRECTION ( 'NONE',  ( -3.491481338843133355E-15, 1.224646799147353207E-16, -1.000000000000000000 ) ) ;
#65 = CARTESIAN_POINT ( 'NONE',  ( 0.0000000000000000000, 0.0000000000000000000, 0.0000000000000000000 ) ) ;
#66 = DESIGN_CONTEXT ( 'detailed design', #96, 'design' ) ;
#67 = ADVANCED_FACE ( 'NONE', ( #142 ), #80, .F. ) ;
#68 = DIRECTION ( 'NONE',  ( 3.491481338843133355E-15, -1.224646799147353207E-16, 1.000000000000000000 ) ) ;
#69 = LOCAL_TIME ( 7, 15, 2.000000000000000000, #77 ) ;
#70 = FACE_OUTER_BOUND ( 'NONE', #78, .T. ) ;
#71 = CARTESIAN_POINT ( 'NONE',  ( 3.260257954873640795E-14, 0.7499999999999963363, 9.337749907475931366 ) ) ;
#72 = SECURITY_CLASSIFICATION_LEVEL ( 'unclassified' ) ;
#73 = DIRECTION ( 'NONE',  ( 0.0000000000000000000, 0.0000000000000000000, 1.000000000000000000 ) ) ;
#74 = EDGE_LOOP ( 'NONE', ( #61 ) ) ;
#75 = MECHANICAL_CONTEXT ( 'NONE', #151, 'mechanical' ) ;
#76 = ORIENTED_EDGE ( 'NONE', *, *, #39, .T. ) ;
#77 = COORDINATED_UNIVERSAL_TIME_OFFSET ( 1, 0, .AHEAD. ) ;
#78 = EDGE_LOOP ( 'NONE', ( #158 ) ) ;
#79 = DIRECTION ( 'NONE',  ( 4.275831445896959482E-31, 1.000000000000000000, 1.224646799147353207E-16 ) ) ;
#80 = PLANE ( 'NONE',  #15 ) ;
#81 = DIRECTION ( 'NONE',  ( 0.0000000000000000000, 1.000000000000000000, 0.0000000000000000000 ) ) ;
#82 = CARTESIAN_POINT ( 'NONE',  ( 3.260257954873640795E-14, -1.143544553542889311E-15, 9.337749907475931366 ) ) ;
#83 = PRODUCT_DEFINITION_FORMATION_WITH_SPECIFIED_SOURCE ( 'ANY', '', #26, .NOT_KNOWN. ) ;
#84 = APPROVAL ( #11, 'UNSPECIFIED' ) ;
#85 = CARTESIAN_POINT ( 'NONE',  ( 1.047444401652940007E-13, 4.124339402320052999E-33, 30.00000000000000000 ) ) ;
#86 = CALENDAR_DATE ( 2021, 8, 10 ) ;
#87 = CARTESIAN_POINT ( 'NONE',  ( 3.142333204958820651E-14, 0.5549999999999999378, 9.000000000000001776 ) ) ;
#88 = CC_DESIGN_PERSON_AND_ORGANIZATION_ASSIGNMENT ( #171, #36, ( #126 ) ) ;
#89 = CIRCLE ( 'NONE', #109, 0.7499999999999998890 ) ;
#90 = AXIS2_PLACEMENT_3D ( 'NONE', #215, #68, #45 ) ;
#91 =( NAMED_UNIT ( * ) SI_UNIT ( $, .STERADIAN. ) SOLID_ANGLE_UNIT ( ) );
#92 = EDGE_LOOP ( 'NONE', ( #3 ) ) ;
#93 = DATE_AND_TIME ( #19, #35 ) ;
#94 = DIRECTION ( 'NONE',  ( 0.0000000000000000000, 1.000000000000000000, 0.0000000000000000000 ) ) ;
#95 = CARTESIAN_POINT ( 'NONE',  ( 3.142333204958820651E-14, -2.082805218291900959E-31, 9.000000000000001776 ) ) ;
#96 = APPLICATION_CONTEXT ( 'configuration controlled 3d designs of mechanical parts and assemblies' ) ;
#97 = PLANE ( 'NONE',  #108 ) ;
#98 = LOCAL_TIME ( 7, 15, 2.000000000000000000, #103 ) ;
#99 = CARTESIAN_POINT ( 'NONE',  ( 3.142333204958820651E-14, -1.102182119232617911E-15, 9.000000000000001776 ) ) ;
#100 = CARTESIAN_POINT ( 'NONE',  ( 1.040461438975253740E-13, -3.649447461459112464E-15, 29.80000000000000071 ) ) ;
#101 = APPROVAL_STATUS ( 'not_yet_approved' ) ;
#102 = VERTEX_POINT ( 'NONE', #58 ) ;
#103 = COORDINATED_UNIVERSAL_TIME_OFFSET ( 1, 0, .AHEAD. ) ;
#104 = CALENDAR_DATE ( 2021, 8, 10 ) ;
#105 = APPROVAL ( #107, 'UNSPECIFIED' ) ;
#106 = DIRECTION ( 'NONE',  ( 1.000000000000000000, 0.0000000000000000000, 0.0000000000000000000 ) ) ;
#107 = APPROVAL_STATUS ( 'not_yet_approved' ) ;
#108 = AXIS2_PLACEMENT_3D ( 'NONE', #85, #164, #22 ) ;
#109 = AXIS2_PLACEMENT_3D ( 'NONE', #100, #50, #81 ) ;
#110 = CARTESIAN_POINT ( 'NONE',  ( 1.040461438975253740E-13, 0.7499999999999962252, 29.80000000000000071 ) ) ;
#111 = DIRECTION ( 'NONE',  ( -3.491481338843133355E-15, 1.224646799147353207E-16, -1.000000000000000000 ) ) ;
#112 = DIRECTION ( 'NONE',  ( -3.491481338843133355E-15, 1.224646799147353207E-16, -1.000000000000000000 ) ) ;
#113 = CIRCLE ( 'NONE', #202, 0.5500000000000000444 ) ;
#114 = CARTESIAN_POINT ( 'NONE',  ( 1.047444401652940007E-13, -3.673940397442059178E-15, 30.00000000000000000 ) ) ;
#115 = CARTESIAN_POINT ( 'NONE',  ( 1.164330969412165852E-15, -4.083923287733221087E-17, 0.3334776435602989642 ) ) ;
#116 = CIRCLE ( 'NONE', #41, 0.5550000000000010481 ) ;
#117 = EDGE_CURVE ( 'NONE', #59, #59, #216, .T. ) ;
#118 = CARTESIAN_POINT ( 'NONE',  ( 1.164330969412166049E-15, 0.5549999999999989386, 0.3334776435602990197 ) ) ;
#119 = VERTEX_POINT ( 'NONE', #184 ) ;
#120 = EDGE_LOOP ( 'NONE', ( #209 ) ) ;
#121 = MANIFOLD_SOLID_BREP ( 'Corps-Déplacer/Copier1[1]', #24 ) ;
#122 = ADVANCED_FACE ( 'NONE', ( #199, #29 ), #30, .T. ) ;
#123 = PERSON_AND_ORGANIZATION ( #127, #16 ) ;
#124 = APPROVAL_ROLE ( '' ) ;
#125 = AXIS2_PLACEMENT_3D ( 'NONE', #6, #130, #10 ) ;
#126 = PRODUCT_DEFINITION ( 'UNKNOWN', '', #83, #66 ) ;
#127 = PERSON ( 'UNSPECIFIED', 'UNSPECIFIED', 'UNSPECIFIED', ('UNSPECIFIED'), ('UNSPECIFIED'), ('UNSPECIFIED') ) ;
#128 = DIRECTION ( 'NONE',  ( 0.0000000000000000000, 1.000000000000000000, 0.0000000000000000000 ) ) ;
#129 = DIRECTION ( 'NONE',  ( -3.491481338843133355E-15, 1.224646799147353207E-16, -1.000000000000000000 ) ) ;
#130 = DIRECTION ( 'NONE',  ( -3.491481338843133355E-15, 1.224646799147353207E-16, -1.000000000000000000 ) ) ;
#131 = CC_DESIGN_APPROVAL ( #207, ( #83 ) ) ;
#132 = FACE_BOUND ( 'NONE', #205, .T. ) ;
#133 = FACE_OUTER_BOUND ( 'NONE', #120, .T. ) ;
#134 =( NAMED_UNIT ( * ) PLANE_ANGLE_UNIT ( ) SI_UNIT ( $, .RADIAN. ) );
#135 = AXIS2_PLACEMENT_3D ( 'NONE', #95, #194, #163 ) ;
#136 = PERSON_AND_ORGANIZATION_ROLE ( 'design_owner' ) ;
#137 = ORIENTED_EDGE ( 'NONE', *, *, #223, .F. ) ;
#138 =( LENGTH_UNIT ( ) NAMED_UNIT ( * ) SI_UNIT ( .MILLI., .METRE. ) );
#139 = CALENDAR_DATE ( 2021, 8, 10 ) ;
#140 = ORIENTED_EDGE ( 'NONE', *, *, #156, .F. ) ;
#141 = LOCAL_TIME ( 7, 15, 2.000000000000000000, #189 ) ;
#142 = FACE_OUTER_BOUND ( 'NONE', #57, .T. ) ;
#143 = PRODUCT_DEFINITION_SHAPE ( 'NONE', 'NONE',  #126 ) ;
#144 = DIRECTION ( 'NONE',  ( 3.491481338843133355E-15, -1.224646799147353207E-16, 1.000000000000000000 ) ) ;
#145 = CC_DESIGN_PERSON_AND_ORGANIZATION_ASSIGNMENT ( #218, #201, ( #83 ) ) ;
#146 = DIRECTION ( 'NONE',  ( 4.275831445896958607E-31, 1.000000000000000000, 1.224646799147353207E-16 ) ) ;
#147 =( GEOMETRIC_REPRESENTATION_CONTEXT ( 3 ) GLOBAL_UNCERTAINTY_ASSIGNED_CONTEXT ( ( #148 ) ) GLOBAL_UNIT_ASSIGNED_CONTEXT ( ( #138, #134, #91 ) ) REPRESENTATION_CONTEXT ( 'NONE', 'WORKASPACE' ) );
#148 = UNCERTAINTY_MEASURE_WITH_UNIT (LENGTH_MEASURE( 1.000000000000000082E-05 ), #138, 'distance_accuracy_value', 'NONE');
#149 = DIRECTION ( 'NONE',  ( 0.0000000000000000000, -1.000000000000000000, 0.0000000000000000000 ) ) ;
#150 = FACE_BOUND ( 'NONE', #38, .T. ) ;
#151 = APPLICATION_CONTEXT ( 'configuration controlled 3d designs of mechanical parts and assemblies' ) ;
#152 = APPROVAL_DATE_TIME ( #169, #207 ) ;
#153 = PERSON_AND_ORGANIZATION_ROLE ( 'design_supplier' ) ;
#154 = CLOSED_SHELL ( 'NONE', ( #198, #44, #18 ) ) ;
#155 = DATE_AND_TIME ( #139, #98 ) ;
#156 = EDGE_CURVE ( 'NONE', #14, #14, #180, .T. ) ;
#157 = COORDINATED_UNIVERSAL_TIME_OFFSET ( 1, 0, .AHEAD. ) ;
#158 = ORIENTED_EDGE ( 'NONE', *, *, #117, .T. ) ;
#159 = CALENDAR_DATE ( 2021, 8, 10 ) ;
#160 = APPROVAL_PERSON_ORGANIZATION ( #23, #105, #124 ) ;
#161 = FACE_OUTER_BOUND ( 'NONE', #191, .T. ) ;
#162 = CC_DESIGN_PERSON_AND_ORGANIZATION_ASSIGNMENT ( #206, #136, ( #26 ) ) ;
#163 = DIRECTION ( 'NONE',  ( -4.275831445896958607E-31, -1.000000000000000000, -1.224646799147353207E-16 ) ) ;
#164 = DIRECTION ( 'NONE',  ( -3.491481338843133355E-15, 1.224646799147353207E-16, -1.000000000000000000 ) ) ;
#165 = CIRCLE ( 'NONE', #4, 0.5549999999999989386 ) ;
#166 = FACE_OUTER_BOUND ( 'NONE', #92, .T. ) ;
#167 = EDGE_CURVE ( 'NONE', #119, #119, #116, .T. ) ;
#168 = DIRECTION ( 'NONE',  ( 3.491481338843133355E-15, -1.224646799147353207E-16, 1.000000000000000000 ) ) ;
#169 = DATE_AND_TIME ( #86, #141 ) ;
#170 = SECURITY_CLASSIFICATION ( '', '', #72 ) ;
#171 = PERSON_AND_ORGANIZATION ( #127, #16 ) ;
#172 = EDGE_LOOP ( 'NONE', ( #20 ) ) ;
#173 = DATE_TIME_ROLE ( 'creation_date' ) ;
#174 = CC_DESIGN_APPROVAL ( #84, ( #126 ) ) ;
#175 = DIRECTION ( 'NONE',  ( 0.0000000000000000000, 1.000000000000000000, 0.0000000000000000000 ) ) ;
#176 = FACE_OUTER_BOUND ( 'NONE', #1, .T. ) ;
#177 = CARTESIAN_POINT ( 'NONE',  ( 3.142333204958820651E-14, -2.082805218291900959E-31, 9.000000000000001776 ) ) ;
#178 = ADVANCED_FACE ( 'NONE', ( #166 ), #97, .F. ) ;
#179 = APPROVAL_PERSON_ORGANIZATION ( #123, #207, #31 ) ;
#180 = CIRCLE ( 'NONE', #214, 0.5550000000000010481 ) ;
#181 = FACE_OUTER_BOUND ( 'NONE', #34, .T. ) ;
#182 = CC_DESIGN_DATE_AND_TIME_ASSIGNMENT ( #222, #173, ( #126 ) ) ;
#183 = DIRECTION ( 'NONE',  ( -3.491481338843133355E-15, 1.224646799147353207E-16, -1.000000000000000000 ) ) ;
#184 = CARTESIAN_POINT ( 'NONE',  ( 3.142333204958820651E-14, 0.5549999999999999378, 9.000000000000001776 ) ) ;
#185 = APPLICATION_PROTOCOL_DEFINITION ( 'international standard', 'config_control_design', 1994, #96 ) ;
#186 = ORIENTED_EDGE ( 'NONE', *, *, #117, .F. ) ;
#187 = CC_DESIGN_SECURITY_CLASSIFICATION ( #170, ( #83 ) ) ;
#188 = APPLICATION_PROTOCOL_DEFINITION ( 'international standard', 'config_control_design', 1994, #151 ) ;
#189 = COORDINATED_UNIVERSAL_TIME_OFFSET ( 1, 0, .AHEAD. ) ;
#190 = EDGE_LOOP ( 'NONE', ( #186 ) ) ;
#191 = EDGE_LOOP ( 'NONE', ( #17 ) ) ;
#192 = CONICAL_SURFACE ( 'NONE', #211, 0.5500000000000000444, 0.7853981633974510546 ) ;
#193 = PRODUCT_RELATED_PRODUCT_CATEGORY ( 'detail', '', ( #26 ) ) ;
#194 = DIRECTION ( 'NONE',  ( 3.491481338843133355E-15, -1.224646799147353207E-16, 1.000000000000000000 ) ) ;
#195 = DIRECTION ( 'NONE',  ( -3.491481338843133355E-15, 1.224646799147353207E-16, -1.000000000000000000 ) ) ;
#196 = ADVANCED_FACE ( 'NONE', ( #150, #70 ), #221, .T. ) ;
#197 = MANIFOLD_SOLID_BREP ( 'Corps-Déplacer/Copier1[2]', #154 ) ;
#198 = ADVANCED_FACE ( 'NONE', ( #133 ), #40, .T. ) ;
#199 = FACE_OUTER_BOUND ( 'NONE', #190, .T. ) ;
#200 = CARTESIAN_POINT ( 'NONE',  ( 1.047444401652940007E-13, -3.673940397442059178E-15, 30.00000000000000000 ) ) ;
#201 = PERSON_AND_ORGANIZATION_ROLE ( 'creator' ) ;
#202 = AXIS2_PLACEMENT_3D ( 'NONE', #114, #112, #175 ) ;
#203 = PERSON_AND_ORGANIZATION ( #127, #16 ) ;
#204 = ADVANCED_FACE ( 'NONE', ( #161, #132 ), #192, .T. ) ;
#205 = EDGE_LOOP ( 'NONE', ( #76 ) ) ;
#206 = PERSON_AND_ORGANIZATION ( #127, #16 ) ;
#207 = APPROVAL ( #101, 'UNSPECIFIED' ) ;
#208 = APPROVAL_DATE_TIME ( #155, #84 ) ;
#209 = ORIENTED_EDGE ( 'NONE', *, *, #223, .T. ) ;
#210 = CARTESIAN_POINT ( 'NONE',  ( 0.0000000000000000000, 0.0000000000000000000, 0.0000000000000000000 ) ) ;
#211 = AXIS2_PLACEMENT_3D ( 'NONE', #200, #111, #128 ) ;
#212 = DIRECTION ( 'NONE',  ( -3.491481338843133355E-15, 1.224646799147353207E-16, -1.000000000000000000 ) ) ;
#213 = DIRECTION ( 'NONE',  ( 0.0000000000000000000, 1.000000000000000000, 0.0000000000000000000 ) ) ;
#214 = AXIS2_PLACEMENT_3D ( 'NONE', #7, #129, #213 ) ;
#215 = CARTESIAN_POINT ( 'NONE',  ( 1.164330969412165852E-15, -4.083923287733221087E-17, 0.3334776435602989642 ) ) ;
#216 = CIRCLE ( 'NONE', #125, 0.7499999999999975575 ) ;
#217 = CYLINDRICAL_SURFACE ( 'NONE', #28, 0.5549999999999999378 ) ;
#218 = PERSON_AND_ORGANIZATION ( #127, #16 ) ;
#219 = CARTESIAN_POINT ( 'NONE',  ( 0.0000000000000000000, 0.0000000000000000000, 0.0000000000000000000 ) ) ;
#220 = VERTEX_POINT ( 'NONE', #118 ) ;
#221 = CONICAL_SURFACE ( 'NONE', #8, 0.7499999999999975575, 0.5235987755982931535 ) ;
#222 = DATE_AND_TIME ( #104, #62 ) ;
#223 = EDGE_CURVE ( 'NONE', #220, #220, #165, .T. ) ;
ENDSEC;
END-ISO-10303-21;
