ISO-10303-21;
HEADER;
FILE_DESCRIPTION (( 'STEP AP203' ),
    '1' );
FILE_NAME ('55362.step',
    '2021-10-08T05:15:01',
    ( '' ),
    ( '' ),
    'SwSTEP 2.0',
    'SolidWorks 2019',
    '' );
FILE_SCHEMA (( 'CONFIG_CONTROL_DESIGN' ));
ENDSEC;

DATA;
#1 = COORDINATED_UNIVERSAL_TIME_OFFSET ( 1, 0, .AHEAD. ) ;
#2 = CIRCLE ( 'NONE', #108, 0.7499999999999998890 ) ;
#3 = DIRECTION ( 'NONE',  ( -3.491481338843133355E-15, 1.224646799147353207E-16, -1.000000000000000000 ) ) ;
#4 = UNCERTAINTY_MEASURE_WITH_UNIT (LENGTH_MEASURE( 1.000000000000000082E-05 ), #104, 'distance_accuracy_value', 'NONE');
#5 = FACE_OUTER_BOUND ( 'NONE', #218, .T. ) ;
#6 = DIRECTION ( 'NONE',  ( -3.491481338843133355E-15, 1.224646799147353207E-16, -1.000000000000000000 ) ) ;
#7 = AXIS2_PLACEMENT_3D ( 'NONE', #173, #176, #88 ) ;
#8 = DIRECTION ( 'NONE',  ( 0.0000000000000000000, 1.000000000000000000, 0.0000000000000000000 ) ) ;
#9 = CARTESIAN_POINT ( 'NONE',  ( 1.047444401652940007E-13, 0.5499999999999963807, 30.00000000000000000 ) ) ;
#10 = DIRECTION ( 'NONE',  ( -3.491481338843133355E-15, 1.224646799147353207E-16, -1.000000000000000000 ) ) ;
#11 = CALENDAR_DATE ( 2021, 8, 10 ) ;
#12 = MANIFOLD_SOLID_BREP ( 'Corps-Déplacer/Copier1[2]', #222 ) ;
#13 = EDGE_LOOP ( 'NONE', ( #187 ) ) ;
#14 = CALENDAR_DATE ( 2021, 8, 10 ) ;
#15 = APPROVAL_ROLE ( '' ) ;
#16 = AXIS2_PLACEMENT_3D ( 'NONE', #22, #73, #142 ) ;
#17 = ORGANIZATION ( 'UNSPECIFIED', 'UNSPECIFIED', '' ) ;
#18 = DIRECTION ( 'NONE',  ( 3.501690807976799148E-31, 1.000000000000000000, 9.856383386231877316E-17 ) ) ;
#19 = ADVANCED_FACE ( 'NONE', ( #84, #85 ), #186, .T. ) ;
#20 = CONICAL_SURFACE ( 'NONE', #220, 0.5500000000000000444, 0.7853981633974510546 ) ;
#21 = FACE_OUTER_BOUND ( 'NONE', #150, .T. ) ;
#22 = CARTESIAN_POINT ( 'NONE',  ( 3.142333204958820020E-14, 4.124339402320095421E-33, 9.000000000000000000 ) ) ;
#23 = FACE_BOUND ( 'NONE', #99, .T. ) ;
#24 = CARTESIAN_POINT ( 'NONE',  ( 3.263281666409917668E-14, 0.7499999999999963363, 9.346410161513773573 ) ) ;
#25 = CARTESIAN_POINT ( 'NONE',  ( 3.263281666409917668E-14, -1.144605128781613961E-15, 9.346410161513773573 ) ) ;
#26 = AXIS2_PLACEMENT_3D ( 'NONE', #131, #162, #185 ) ;
#27 = PERSON ( 'UNSPECIFIED', 'UNSPECIFIED', 'UNSPECIFIED', ('UNSPECIFIED'), ('UNSPECIFIED'), ('UNSPECIFIED') ) ;
#28 = PERSON_AND_ORGANIZATION_ROLE ( 'classification_officer' ) ;
#29 = ORIENTED_EDGE ( 'NONE', *, *, #214, .F. ) ;
#30 = EDGE_CURVE ( 'NONE', #71, #71, #79, .T. ) ;
#31 = ORIENTED_EDGE ( 'NONE', *, *, #39, .T. ) ;
#32 = PERSON_AND_ORGANIZATION ( #27, #17 ) ;
#33 = APPROVAL_STATUS ( 'not_yet_approved' ) ;
#34 = CC_DESIGN_PERSON_AND_ORGANIZATION_ASSIGNMENT ( #32, #160, ( #54 ) ) ;
#35 = CARTESIAN_POINT ( 'NONE',  ( 3.142333204958820020E-14, 0.5499999999999992673, 9.000000000000000000 ) ) ;
#36 = PLANE ( 'NONE',  #7 ) ;
#37 = CARTESIAN_POINT ( 'NONE',  ( 1.040461438975253740E-13, 0.7499999999999962252, 29.80000000000000071 ) ) ;
#38 = DIRECTION ( 'NONE',  ( 3.491481338843133355E-15, -1.224646799147353207E-16, 1.000000000000000000 ) ) ;
#39 = EDGE_CURVE ( 'NONE', #139, #139, #180, .T. ) ;
#40 = DIRECTION ( 'NONE',  ( 0.0000000000000000000, 1.000000000000000000, 0.0000000000000000000 ) ) ;
#41 = APPROVAL_DATE_TIME ( #196, #130 ) ;
#42 = LOCAL_TIME ( 7, 15, 1.000000000000000000, #82 ) ;
#43 = ADVANCED_FACE ( 'NONE', ( #50 ), #36, .T. ) ;
#44 = PRODUCT ( '55362', '55362', '', ( #77 ) ) ;
#45 = COORDINATED_UNIVERSAL_TIME_OFFSET ( 1, 0, .AHEAD. ) ;
#46 = APPLICATION_CONTEXT ( 'configuration controlled 3d designs of mechanical parts and assemblies' ) ;
#47 = LOCAL_TIME ( 7, 15, 1.000000000000000000, #98 ) ;
#48 = APPROVAL ( #64, 'UNSPECIFIED' ) ;
#49 = APPROVAL_ROLE ( '' ) ;
#50 = FACE_OUTER_BOUND ( 'NONE', #166, .T. ) ;
#51 = FACE_OUTER_BOUND ( 'NONE', #13, .T. ) ;
#52 = CARTESIAN_POINT ( 'NONE',  ( 0.0000000000000000000, 0.0000000000000000000, 0.0000000000000000000 ) ) ;
#53 = CARTESIAN_POINT ( 'NONE',  ( 0.0000000000000000000, 0.0000000000000000000, 0.0000000000000000000 ) ) ;
#54 = PRODUCT_DEFINITION ( 'UNKNOWN', '', #97, #87 ) ;
#55 = CARTESIAN_POINT ( 'NONE',  ( 1.047444401652940007E-13, -3.673940397442059178E-15, 30.00000000000000000 ) ) ;
#56 = CALENDAR_DATE ( 2021, 8, 10 ) ;
#57 = APPLICATION_PROTOCOL_DEFINITION ( 'international standard', 'config_control_design', 1994, #174 ) ;
#58 = ORIENTED_EDGE ( 'NONE', *, *, #214, .T. ) ;
#59 = CLOSED_SHELL ( 'NONE', ( #103, #113, #81, #200, #181 ) ) ;
#60 = CALENDAR_DATE ( 2021, 8, 10 ) ;
#61 = CC_DESIGN_APPROVAL ( #130, ( #97 ) ) ;
#62 = EDGE_LOOP ( 'NONE', ( #146 ) ) ;
#63 = PERSON_AND_ORGANIZATION_ROLE ( 'design_owner' ) ;
#64 = APPROVAL_STATUS ( 'not_yet_approved' ) ;
#65 = CARTESIAN_POINT ( 'NONE',  ( 1.153841501219263569E-15, -4.047131186041931046E-17, 0.3304733404651611917 ) ) ;
#66 = DIRECTION ( 'NONE',  ( -3.491481338843133355E-15, 1.224646799147353207E-16, -1.000000000000000000 ) ) ;
#67 = DIRECTION ( 'NONE',  ( -3.491481338843133355E-15, 1.224646799147353207E-16, -1.000000000000000000 ) ) ;
#68 = CONICAL_SURFACE ( 'NONE', #101, 0.7499999999999975575, 0.5235987755982937086 ) ;
#69 = APPROVAL_PERSON_ORGANIZATION ( #116, #48, #49 ) ;
#70 = PRODUCT_DEFINITION_SHAPE ( 'NONE', 'NONE',  #54 ) ;
#71 = VERTEX_POINT ( 'NONE', #188 ) ;
#72 = CYLINDRICAL_SURFACE ( 'NONE', #210, 0.7499999999999986677 ) ;
#73 = DIRECTION ( 'NONE',  ( 3.491481338843133355E-15, -1.224646799147353207E-16, 1.000000000000000000 ) ) ;
#74 = AXIS2_PLACEMENT_3D ( 'NONE', #53, #6, #190 ) ;
#75 =( NAMED_UNIT ( * ) PLANE_ANGLE_UNIT ( ) SI_UNIT ( $, .RADIAN. ) );
#76 = ORIENTED_EDGE ( 'NONE', *, *, #92, .F. ) ;
#77 = MECHANICAL_CONTEXT ( 'NONE', #46, 'mechanical' ) ;
#78 = ORIENTED_EDGE ( 'NONE', *, *, #207, .F. ) ;
#79 = CIRCLE ( 'NONE', #26, 0.5500000000000003775 ) ;
#80 = AXIS2_PLACEMENT_3D ( 'NONE', #109, #66, #8 ) ;
#81 = ADVANCED_FACE ( 'NONE', ( #5, #121 ), #72, .T. ) ;
#82 = COORDINATED_UNIVERSAL_TIME_OFFSET ( 1, 0, .AHEAD. ) ;
#83 = DATE_AND_TIME ( #11, #102 ) ;
#84 = FACE_OUTER_BOUND ( 'NONE', #62, .T. ) ;
#85 = FACE_OUTER_BOUND ( 'NONE', #179, .T. ) ;
#86 = FACE_BOUND ( 'NONE', #127, .T. ) ;
#87 = DESIGN_CONTEXT ( 'detailed design', #174, 'design' ) ;
#88 = DIRECTION ( 'NONE',  ( -4.275831445896958607E-31, -1.000000000000000000, -1.224646799147353207E-16 ) ) ;
#89 = CARTESIAN_POINT ( 'NONE',  ( 3.263281666409917668E-14, -1.144605128781613961E-15, 9.346410161513773573 ) ) ;
#90 = LOCAL_TIME ( 7, 15, 1.000000000000000000, #216 ) ;
#91 = DIRECTION ( 'NONE',  ( 4.275831445896958607E-31, 1.000000000000000000, 1.224646799147353207E-16 ) ) ;
#92 = EDGE_CURVE ( 'NONE', #213, #213, #2, .T. ) ;
#93 = CARTESIAN_POINT ( 'NONE',  ( 1.047444401652940007E-13, 4.124339402320052999E-33, 30.00000000000000000 ) ) ;
#94 = EDGE_LOOP ( 'NONE', ( #76 ) ) ;
#95 = CC_DESIGN_PERSON_AND_ORGANIZATION_ASSIGNMENT ( #167, #28, ( #172 ) ) ;
#96 = PERSON_AND_ORGANIZATION ( #27, #17 ) ;
#97 = PRODUCT_DEFINITION_FORMATION_WITH_SPECIFIED_SOURCE ( 'ANY', '', #44, .NOT_KNOWN. ) ;
#98 = COORDINATED_UNIVERSAL_TIME_OFFSET ( 1, 0, .AHEAD. ) ;
#99 = EDGE_LOOP ( 'NONE', ( #100 ) ) ;
#100 = ORIENTED_EDGE ( 'NONE', *, *, #207, .T. ) ;
#101 = AXIS2_PLACEMENT_3D ( 'NONE', #25, #120, #156 ) ;
#102 = LOCAL_TIME ( 7, 15, 1.000000000000000000, #45 ) ;
#103 = ADVANCED_FACE ( 'NONE', ( #21 ), #119, .F. ) ;
#104 =( LENGTH_UNIT ( ) NAMED_UNIT ( * ) SI_UNIT ( .MILLI., .METRE. ) );
#105 = CARTESIAN_POINT ( 'NONE',  ( 1.040461438975253740E-13, -3.649447461459112464E-15, 29.80000000000000071 ) ) ;
#106 = ORIENTED_EDGE ( 'NONE', *, *, #92, .T. ) ;
#107 = VERTEX_POINT ( 'NONE', #24 ) ;
#108 = AXIS2_PLACEMENT_3D ( 'NONE', #105, #10, #40 ) ;
#109 = CARTESIAN_POINT ( 'NONE',  ( 3.142333204958820020E-14, -1.102182119232617714E-15, 9.000000000000000000 ) ) ;
#110 =( NAMED_UNIT ( * ) SI_UNIT ( $, .STERADIAN. ) SOLID_ANGLE_UNIT ( ) );
#111 = PERSON_AND_ORGANIZATION ( #27, #17 ) ;
#112 = APPROVAL_PERSON_ORGANIZATION ( #117, #130, #125 ) ;
#113 = ADVANCED_FACE ( 'NONE', ( #86, #51 ), #68, .T. ) ;
#114 = AXIS2_PLACEMENT_3D ( 'NONE', #145, #183, #219 ) ;
#115 = PERSON_AND_ORGANIZATION ( #27, #17 ) ;
#116 = PERSON_AND_ORGANIZATION ( #27, #17 ) ;
#117 = PERSON_AND_ORGANIZATION ( #27, #17 ) ;
#118 = CC_DESIGN_APPROVAL ( #48, ( #54 ) ) ;
#119 = PLANE ( 'NONE',  #16 ) ;
#120 = DIRECTION ( 'NONE',  ( 3.491481338843133355E-15, -1.224646799147353207E-16, 1.000000000000000000 ) ) ;
#121 = FACE_OUTER_BOUND ( 'NONE', #199, .T. ) ;
#122 = CARTESIAN_POINT ( 'NONE',  ( 1.153841501219263569E-15, -4.047131186041931046E-17, 0.3304733404651611917 ) ) ;
#123 = DIRECTION ( 'NONE',  ( -3.491481338843133355E-15, 1.224646799147353207E-16, -1.000000000000000000 ) ) ;
#124 = DATE_AND_TIME ( #56, #90 ) ;
#125 = APPROVAL_ROLE ( '' ) ;
#126 = CIRCLE ( 'NONE', #164, 0.7499999999999975575 ) ;
#127 = EDGE_LOOP ( 'NONE', ( #163 ) ) ;
#128 = CC_DESIGN_PERSON_AND_ORGANIZATION_ASSIGNMENT ( #111, #178, ( #97 ) ) ;
#129 = DATE_TIME_ROLE ( 'classification_date' ) ;
#130 = APPROVAL ( #182, 'UNSPECIFIED' ) ;
#131 = CARTESIAN_POINT ( 'NONE',  ( 3.142333204958820020E-14, -1.102182119232617714E-15, 9.000000000000000000 ) ) ;
#132 = PERSON_AND_ORGANIZATION ( #27, #17 ) ;
#133 = DATE_AND_TIME ( #14, #198 ) ;
#134 = PRODUCT_RELATED_PRODUCT_CATEGORY ( 'detail', '', ( #44 ) ) ;
#135 = APPROVAL_PERSON_ORGANIZATION ( #96, #168, #15 ) ;
#136 = VERTEX_POINT ( 'NONE', #35 ) ;
#137 =( GEOMETRIC_REPRESENTATION_CONTEXT ( 3 ) GLOBAL_UNCERTAINTY_ASSIGNED_CONTEXT ( ( #4 ) ) GLOBAL_UNIT_ASSIGNED_CONTEXT ( ( #104, #75, #110 ) ) REPRESENTATION_CONTEXT ( 'NONE', 'WORKASPACE' ) );
#138 = DIRECTION ( 'NONE',  ( 0.0000000000000000000, 1.000000000000000000, 0.0000000000000000000 ) ) ;
#139 = VERTEX_POINT ( 'NONE', #191 ) ;
#140 = FACE_OUTER_BOUND ( 'NONE', #94, .T. ) ;
#141 = DIRECTION ( 'NONE',  ( -3.491481338843133355E-15, 1.224646799147353207E-16, -1.000000000000000000 ) ) ;
#142 = DIRECTION ( 'NONE',  ( -4.275831445896958607E-31, -1.000000000000000000, -1.224646799147353207E-16 ) ) ;
#143 = CIRCLE ( 'NONE', #80, 0.5500000000000003775 ) ;
#144 = APPLICATION_PROTOCOL_DEFINITION ( 'international standard', 'config_control_design', 1994, #46 ) ;
#145 = CARTESIAN_POINT ( 'NONE',  ( 0.0000000000000000000, 0.0000000000000000000, 0.0000000000000000000 ) ) ;
#146 = ORIENTED_EDGE ( 'NONE', *, *, #39, .F. ) ;
#147 = DATE_TIME_ROLE ( 'creation_date' ) ;
#148 = EDGE_LOOP ( 'NONE', ( #78 ) ) ;
#149 = DATE_AND_TIME ( #205, #42 ) ;
#150 = EDGE_LOOP ( 'NONE', ( #203 ) ) ;
#151 = PERSON_AND_ORGANIZATION_ROLE ( 'creator' ) ;
#152 = AXIS2_PLACEMENT_3D ( 'NONE', #122, #38, #154 ) ;
#153 = CC_DESIGN_DATE_AND_TIME_ASSIGNMENT ( #133, #129, ( #172 ) ) ;
#154 = DIRECTION ( 'NONE',  ( -3.501690807976799148E-31, -1.000000000000000000, -9.856383386231877316E-17 ) ) ;
#155 = MANIFOLD_SOLID_BREP ( 'Corps-Déplacer/Copier1[1]', #59 ) ;
#156 = DIRECTION ( 'NONE',  ( 0.0000000000000000000, -1.000000000000000000, 0.0000000000000000000 ) ) ;
#157 = DIRECTION ( 'NONE',  ( -3.491481338843133355E-15, 1.224646799147353207E-16, -1.000000000000000000 ) ) ;
#158 = VERTEX_POINT ( 'NONE', #9 ) ;
#159 = CARTESIAN_POINT ( 'NONE',  ( 1.047444401652940007E-13, -3.673940397442059178E-15, 30.00000000000000000 ) ) ;
#160 = PERSON_AND_ORGANIZATION_ROLE ( 'creator' ) ;
#161 = AXIS2_PLACEMENT_3D ( 'NONE', #55, #123, #208 ) ;
#162 = DIRECTION ( 'NONE',  ( -3.491481338843133355E-15, 1.224646799147353207E-16, -1.000000000000000000 ) ) ;
#163 = ORIENTED_EDGE ( 'NONE', *, *, #30, .F. ) ;
#164 = AXIS2_PLACEMENT_3D ( 'NONE', #89, #157, #138 ) ;
#165 = CC_DESIGN_PERSON_AND_ORGANIZATION_ASSIGNMENT ( #115, #151, ( #97 ) ) ;
#166 = EDGE_LOOP ( 'NONE', ( #29 ) ) ;
#167 = PERSON_AND_ORGANIZATION ( #27, #17 ) ;
#168 = APPROVAL ( #33, 'UNSPECIFIED' ) ;
#169 = CC_DESIGN_APPROVAL ( #168, ( #172 ) ) ;
#170 = SHAPE_DEFINITION_REPRESENTATION ( #70, #209 ) ;
#171 = CC_DESIGN_PERSON_AND_ORGANIZATION_ASSIGNMENT ( #132, #63, ( #44 ) ) ;
#172 = SECURITY_CLASSIFICATION ( '', '', #221 ) ;
#173 = CARTESIAN_POINT ( 'NONE',  ( 3.142333204958820020E-14, 4.124339402320095421E-33, 9.000000000000000000 ) ) ;
#174 = APPLICATION_CONTEXT ( 'configuration controlled 3d designs of mechanical parts and assemblies' ) ;
#175 = EDGE_LOOP ( 'NONE', ( #31 ) ) ;
#176 = DIRECTION ( 'NONE',  ( 3.491481338843133355E-15, -1.224646799147353207E-16, 1.000000000000000000 ) ) ;
#177 = FACE_OUTER_BOUND ( 'NONE', #175, .T. ) ;
#178 = PERSON_AND_ORGANIZATION_ROLE ( 'design_supplier' ) ;
#179 = EDGE_LOOP ( 'NONE', ( #58 ) ) ;
#180 = CIRCLE ( 'NONE', #192, 0.5499999999999989342 ) ;
#181 = ADVANCED_FACE ( 'NONE', ( #215 ), #194, .F. ) ;
#182 = APPROVAL_STATUS ( 'not_yet_approved' ) ;
#183 = DIRECTION ( 'NONE',  ( 0.0000000000000000000, 0.0000000000000000000, 1.000000000000000000 ) ) ;
#184 = EDGE_CURVE ( 'NONE', #107, #107, #126, .T. ) ;
#185 = DIRECTION ( 'NONE',  ( 0.0000000000000000000, 1.000000000000000000, 0.0000000000000000000 ) ) ;
#186 = CYLINDRICAL_SURFACE ( 'NONE', #74, 0.5499999999999997113 ) ;
#187 = ORIENTED_EDGE ( 'NONE', *, *, #184, .T. ) ;
#188 = CARTESIAN_POINT ( 'NONE',  ( 3.142333204958820020E-14, 0.5499999999999992673, 9.000000000000000000 ) ) ;
#189 = DIRECTION ( 'NONE',  ( -3.491481338843133355E-15, 1.224646799147353207E-16, -1.000000000000000000 ) ) ;
#190 = DIRECTION ( 'NONE',  ( 4.275831445896958607E-31, 1.000000000000000000, 1.224646799147353207E-16 ) ) ;
#191 = CARTESIAN_POINT ( 'NONE',  ( 1.153841501219263766E-15, 0.5499999999999989342, 0.3304733404651612472 ) ) ;
#192 = AXIS2_PLACEMENT_3D ( 'NONE', #65, #141, #18 ) ;
#193 = ADVANCED_FACE ( 'NONE', ( #177 ), #211, .T. ) ;
#194 = PLANE ( 'NONE',  #201 ) ;
#195 = DIRECTION ( 'NONE',  ( 4.275831445896959482E-31, 1.000000000000000000, 1.224646799147353207E-16 ) ) ;
#196 = DATE_AND_TIME ( #60, #47 ) ;
#197 = ORIENTED_EDGE ( 'NONE', *, *, #184, .F. ) ;
#198 = LOCAL_TIME ( 7, 15, 1.000000000000000000, #1 ) ;
#199 = EDGE_LOOP ( 'NONE', ( #106 ) ) ;
#200 = ADVANCED_FACE ( 'NONE', ( #140, #23 ), #20, .T. ) ;
#201 = AXIS2_PLACEMENT_3D ( 'NONE', #93, #67, #91 ) ;
#202 = CC_DESIGN_SECURITY_CLASSIFICATION ( #172, ( #97 ) ) ;
#203 = ORIENTED_EDGE ( 'NONE', *, *, #30, .T. ) ;
#204 = APPROVAL_DATE_TIME ( #124, #48 ) ;
#205 = CALENDAR_DATE ( 2021, 8, 10 ) ;
#206 = CIRCLE ( 'NONE', #161, 0.5500000000000000444 ) ;
#207 = EDGE_CURVE ( 'NONE', #158, #158, #206, .T. ) ;
#208 = DIRECTION ( 'NONE',  ( 0.0000000000000000000, 1.000000000000000000, 0.0000000000000000000 ) ) ;
#209 = ADVANCED_BREP_SHAPE_REPRESENTATION ( '55362', ( #155, #12, #114 ), #137 ) ;
#210 = AXIS2_PLACEMENT_3D ( 'NONE', #52, #189, #195 ) ;
#211 = CONICAL_SURFACE ( 'NONE', #152, 0.5499999999999989342, 1.029744258676649649 ) ;
#212 = DIRECTION ( 'NONE',  ( 0.0000000000000000000, 1.000000000000000000, 0.0000000000000000000 ) ) ;
#213 = VERTEX_POINT ( 'NONE', #37 ) ;
#214 = EDGE_CURVE ( 'NONE', #136, #136, #143, .T. ) ;
#215 = FACE_OUTER_BOUND ( 'NONE', #148, .T. ) ;
#216 = COORDINATED_UNIVERSAL_TIME_OFFSET ( 1, 0, .AHEAD. ) ;
#217 = CC_DESIGN_DATE_AND_TIME_ASSIGNMENT ( #83, #147, ( #54 ) ) ;
#218 = EDGE_LOOP ( 'NONE', ( #197 ) ) ;
#219 = DIRECTION ( 'NONE',  ( 1.000000000000000000, 0.0000000000000000000, 0.0000000000000000000 ) ) ;
#220 = AXIS2_PLACEMENT_3D ( 'NONE', #159, #3, #212 ) ;
#221 = SECURITY_CLASSIFICATION_LEVEL ( 'unclassified' ) ;
#222 = CLOSED_SHELL ( 'NONE', ( #193, #19, #43 ) ) ;
#223 = APPROVAL_DATE_TIME ( #149, #168 ) ;
ENDSEC;
END-ISO-10303-21;
