ISO-10303-21;
HEADER;
FILE_DESCRIPTION (( 'STEP AP203' ),
    '1' );
FILE_NAME ('55361.step',
    '2021-10-08T05:15:01',
    ( '' ),
    ( '' ),
    'SwSTEP 2.0',
    'SolidWorks 2019',
    '' );
FILE_SCHEMA (( 'CONFIG_CONTROL_DESIGN' ));
ENDSEC;

DATA;
#1 = FACE_BOUND ( 'NONE', #220, .T. ) ;
#2 = DATE_AND_TIME ( #93, #112 ) ;
#3 = DIRECTION ( 'NONE',  ( -3.491481338843133355E-15, 1.224646799147353207E-16, -1.000000000000000000 ) ) ;
#4 = CARTESIAN_POINT ( 'NONE',  ( 3.142333204958820651E-14, -1.102182119232617911E-15, 9.000000000000001776 ) ) ;
#5 = FACE_OUTER_BOUND ( 'NONE', #73, .T. ) ;
#6 = DATE_AND_TIME ( #50, #47 ) ;
#7 = AXIS2_PLACEMENT_3D ( 'NONE', #210, #119, #59 ) ;
#8 = DIRECTION ( 'NONE',  ( 0.0000000000000000000, 1.000000000000000000, 0.0000000000000000000 ) ) ;
#9 = ORIENTED_EDGE ( 'NONE', *, *, #212, .F. ) ;
#10 = DATE_AND_TIME ( #80, #167 ) ;
#11 = EDGE_LOOP ( 'NONE', ( #151 ) ) ;
#12 = CC_DESIGN_PERSON_AND_ORGANIZATION_ASSIGNMENT ( #92, #142, ( #49 ) ) ;
#13 = CYLINDRICAL_SURFACE ( 'NONE', #7, 0.5449999999999997069 ) ;
#14 = DIRECTION ( 'NONE',  ( -3.491481338843133355E-15, 1.224646799147353207E-16, -1.000000000000000000 ) ) ;
#15 = DIRECTION ( 'NONE',  ( 3.491481338843133355E-15, -1.224646799147353207E-16, 1.000000000000000000 ) ) ;
#16 = APPROVAL_ROLE ( '' ) ;
#17 = ADVANCED_FACE ( 'NONE', ( #1, #63 ), #146, .T. ) ;
#18 = DIRECTION ( 'NONE',  ( -3.491481338843133355E-15, 1.224646799147353207E-16, -1.000000000000000000 ) ) ;
#19 = CLOSED_SHELL ( 'NONE', ( #34, #17, #24, #101, #35 ) ) ;
#20 = AXIS2_PLACEMENT_3D ( 'NONE', #219, #128, #199 ) ;
#21 = APPROVAL_STATUS ( 'not_yet_approved' ) ;
#22 = DIRECTION ( 'NONE',  ( 1.000000000000000000, 0.0000000000000000000, 0.0000000000000000000 ) ) ;
#23 = COORDINATED_UNIVERSAL_TIME_OFFSET ( 1, 0, .AHEAD. ) ;
#24 = ADVANCED_FACE ( 'NONE', ( #137, #5 ), #45, .T. ) ;
#25 = DESIGN_CONTEXT ( 'detailed design', #88, 'design' ) ;
#26 = ORIENTED_EDGE ( 'NONE', *, *, #86, .F. ) ;
#27 = AXIS2_PLACEMENT_3D ( 'NONE', #211, #213, #8 ) ;
#28 = DIRECTION ( 'NONE',  ( 4.275831445896959482E-31, 1.000000000000000000, 1.224646799147353207E-16 ) ) ;
#29 = CARTESIAN_POINT ( 'NONE',  ( 1.040461438975253740E-13, -3.649447461459112464E-15, 29.80000000000000071 ) ) ;
#30 = APPLICATION_CONTEXT ( 'configuration controlled 3d designs of mechanical parts and assemblies' ) ;
#31 = FACE_OUTER_BOUND ( 'NONE', #118, .T. ) ;
#32 = VERTEX_POINT ( 'NONE', #105 ) ;
#33 =( GEOMETRIC_REPRESENTATION_CONTEXT ( 3 ) GLOBAL_UNCERTAINTY_ASSIGNED_CONTEXT ( ( #184 ) ) GLOBAL_UNIT_ASSIGNED_CONTEXT ( ( #205, #91, #217 ) ) REPRESENTATION_CONTEXT ( 'NONE', 'WORKASPACE' ) );
#34 = ADVANCED_FACE ( 'NONE', ( #141 ), #120, .F. ) ;
#35 = ADVANCED_FACE ( 'NONE', ( #207 ), #97, .F. ) ;
#36 = CARTESIAN_POINT ( 'NONE',  ( 1.143352033026361286E-15, 0.5449999999999989297, 0.3274690373700233637 ) ) ;
#37 = VERTEX_POINT ( 'NONE', #176 ) ;
#38 = CARTESIAN_POINT ( 'NONE',  ( 1.143352033026361089E-15, -4.010339084350640388E-17, 0.3274690373700233081 ) ) ;
#39 = SECURITY_CLASSIFICATION_LEVEL ( 'unclassified' ) ;
#40 = ADVANCED_FACE ( 'NONE', ( #31, #95 ), #13, .T. ) ;
#41 = EDGE_LOOP ( 'NONE', ( #9 ) ) ;
#42 = AXIS2_PLACEMENT_3D ( 'NONE', #170, #14, #28 ) ;
#43 = DIRECTION ( 'NONE',  ( 3.533816411719705735E-31, 1.000000000000000000, 9.946808921885381264E-17 ) ) ;
#44 = EDGE_LOOP ( 'NONE', ( #54 ) ) ;
#45 = CYLINDRICAL_SURFACE ( 'NONE', #42, 0.7499999999999986677 ) ;
#46 = AXIS2_PLACEMENT_3D ( 'NONE', #79, #98, #156 ) ;
#47 = LOCAL_TIME ( 7, 15, 1.000000000000000000, #197 ) ;
#48 = DIRECTION ( 'NONE',  ( 0.0000000000000000000, 1.000000000000000000, 0.0000000000000000000 ) ) ;
#49 = PRODUCT ( '55361', '55361', '', ( #195 ) ) ;
#50 = CALENDAR_DATE ( 2021, 8, 10 ) ;
#51 = AXIS2_PLACEMENT_3D ( 'NONE', #4, #18, #183 ) ;
#52 = CIRCLE ( 'NONE', #152, 0.5449999999999989297 ) ;
#53 = EDGE_LOOP ( 'NONE', ( #76 ) ) ;
#54 = ORIENTED_EDGE ( 'NONE', *, *, #86, .T. ) ;
#55 = DIRECTION ( 'NONE',  ( 0.0000000000000000000, 0.0000000000000000000, 1.000000000000000000 ) ) ;
#56 = DIRECTION ( 'NONE',  ( -3.491481338843133355E-15, 1.224646799147353207E-16, -1.000000000000000000 ) ) ;
#57 = ORIENTED_EDGE ( 'NONE', *, *, #149, .T. ) ;
#58 = CALENDAR_DATE ( 2021, 8, 10 ) ;
#59 = DIRECTION ( 'NONE',  ( 4.275831445896958607E-31, 1.000000000000000000, 1.224646799147353207E-16 ) ) ;
#60 = PERSON_AND_ORGANIZATION_ROLE ( 'creator' ) ;
#61 = DIRECTION ( 'NONE',  ( -3.491481338843133355E-15, 1.224646799147353207E-16, -1.000000000000000000 ) ) ;
#62 = CC_DESIGN_APPROVAL ( #106, ( #159 ) ) ;
#63 = FACE_OUTER_BOUND ( 'NONE', #11, .T. ) ;
#64 = DATE_AND_TIME ( #189, #185 ) ;
#65 = VERTEX_POINT ( 'NONE', #174 ) ;
#66 = SECURITY_CLASSIFICATION ( '', '', #39 ) ;
#67 = ORGANIZATION ( 'UNSPECIFIED', 'UNSPECIFIED', '' ) ;
#68 = ADVANCED_BREP_SHAPE_REPRESENTATION ( '55361', ( #126, #209, #171 ), #33 ) ;
#69 = CC_DESIGN_PERSON_AND_ORGANIZATION_ASSIGNMENT ( #166, #165, ( #196 ) ) ;
#70 = PERSON_AND_ORGANIZATION ( #102, #67 ) ;
#71 = APPROVAL_ROLE ( '' ) ;
#72 = CONICAL_SURFACE ( 'NONE', #27, 0.5500000000000000444, 0.7853981633974510546 ) ;
#73 = EDGE_LOOP ( 'NONE', ( #130 ) ) ;
#74 = DIRECTION ( 'NONE',  ( 3.491481338843133355E-15, -1.224646799147353207E-16, 1.000000000000000000 ) ) ;
#75 = EDGE_CURVE ( 'NONE', #32, #32, #161, .T. ) ;
#76 = ORIENTED_EDGE ( 'NONE', *, *, #202, .T. ) ;
#77 = FACE_OUTER_BOUND ( 'NONE', #53, .T. ) ;
#78 = DIRECTION ( 'NONE',  ( -3.491481338843133355E-15, 1.224646799147353207E-16, -1.000000000000000000 ) ) ;
#79 = CARTESIAN_POINT ( 'NONE',  ( 3.266305377946195173E-14, -1.145665704020339005E-15, 9.355070415551619334 ) ) ;
#80 = CALENDAR_DATE ( 2021, 8, 10 ) ;
#81 = CARTESIAN_POINT ( 'NONE',  ( 1.047444401652940007E-13, -3.673940397442059178E-15, 30.00000000000000000 ) ) ;
#82 = PERSON_AND_ORGANIZATION ( #102, #67 ) ;
#83 = PERSON_AND_ORGANIZATION_ROLE ( 'creator' ) ;
#84 = APPROVAL ( #223, 'UNSPECIFIED' ) ;
#85 = APPLICATION_PROTOCOL_DEFINITION ( 'international standard', 'config_control_design', 1994, #88 ) ;
#86 = EDGE_CURVE ( 'NONE', #65, #65, #104, .T. ) ;
#87 = CONICAL_SURFACE ( 'NONE', #147, 0.5449999999999989297, 1.029744258676649649 ) ;
#88 = APPLICATION_CONTEXT ( 'configuration controlled 3d designs of mechanical parts and assemblies' ) ;
#89 = EDGE_LOOP ( 'NONE', ( #181 ) ) ;
#90 = DIRECTION ( 'NONE',  ( -3.533816411719705735E-31, -1.000000000000000000, -9.946808921885381264E-17 ) ) ;
#91 =( NAMED_UNIT ( * ) PLANE_ANGLE_UNIT ( ) SI_UNIT ( $, .RADIAN. ) );
#92 = PERSON_AND_ORGANIZATION ( #102, #67 ) ;
#93 = CALENDAR_DATE ( 2021, 8, 10 ) ;
#94 = CC_DESIGN_PERSON_AND_ORGANIZATION_ASSIGNMENT ( #155, #177, ( #66 ) ) ;
#95 = FACE_OUTER_BOUND ( 'NONE', #89, .T. ) ;
#96 = APPROVAL_PERSON_ORGANIZATION ( #200, #84, #180 ) ;
#97 = PLANE ( 'NONE',  #100 ) ;
#98 = DIRECTION ( 'NONE',  ( 3.491481338843133355E-15, -1.224646799147353207E-16, 1.000000000000000000 ) ) ;
#99 = PRODUCT_DEFINITION_SHAPE ( 'NONE', 'NONE',  #159 ) ;
#100 = AXIS2_PLACEMENT_3D ( 'NONE', #168, #61, #138 ) ;
#101 = ADVANCED_FACE ( 'NONE', ( #121, #122 ), #72, .T. ) ;
#102 = PERSON ( 'UNSPECIFIED', 'UNSPECIFIED', 'UNSPECIFIED', ('UNSPECIFIED'), ('UNSPECIFIED'), ('UNSPECIFIED') ) ;
#103 = CC_DESIGN_PERSON_AND_ORGANIZATION_ASSIGNMENT ( #82, #83, ( #159 ) ) ;
#104 = CIRCLE ( 'NONE', #139, 0.5500000000000000444 ) ;
#105 = CARTESIAN_POINT ( 'NONE',  ( 3.142333204958820651E-14, 0.5449999999999994849, 9.000000000000001776 ) ) ;
#106 = APPROVAL ( #21, 'UNSPECIFIED' ) ;
#107 = CARTESIAN_POINT ( 'NONE',  ( 1.040461438975253740E-13, 0.7499999999999962252, 29.80000000000000071 ) ) ;
#108 = PLANE ( 'NONE',  #20 ) ;
#109 = PERSON_AND_ORGANIZATION ( #102, #67 ) ;
#110 = ORIENTED_EDGE ( 'NONE', *, *, #202, .F. ) ;
#111 = APPROVAL_DATE_TIME ( #10, #84 ) ;
#112 = LOCAL_TIME ( 7, 15, 1.000000000000000000, #129 ) ;
#113 = CARTESIAN_POINT ( 'NONE',  ( 3.266305377946195173E-14, -1.145665704020339005E-15, 9.355070415551619334 ) ) ;
#114 = PERSON_AND_ORGANIZATION ( #102, #67 ) ;
#115 = ORIENTED_EDGE ( 'NONE', *, *, #149, .F. ) ;
#116 = CC_DESIGN_DATE_AND_TIME_ASSIGNMENT ( #64, #133, ( #159 ) ) ;
#117 = FACE_OUTER_BOUND ( 'NONE', #222, .T. ) ;
#118 = EDGE_LOOP ( 'NONE', ( #110 ) ) ;
#119 = DIRECTION ( 'NONE',  ( -3.491481338843133355E-15, 1.224646799147353207E-16, -1.000000000000000000 ) ) ;
#120 = PLANE ( 'NONE',  #144 ) ;
#121 = FACE_OUTER_BOUND ( 'NONE', #204, .T. ) ;
#122 = FACE_BOUND ( 'NONE', #44, .T. ) ;
#123 = CIRCLE ( 'NONE', #51, 0.5450000000000005951 ) ;
#124 = CC_DESIGN_APPROVAL ( #215, ( #196 ) ) ;
#125 = CC_DESIGN_SECURITY_CLASSIFICATION ( #66, ( #196 ) ) ;
#126 = MANIFOLD_SOLID_BREP ( 'Corps-Déplacer/Copier1[1]', #19 ) ;
#127 = VERTEX_POINT ( 'NONE', #107 ) ;
#128 = DIRECTION ( 'NONE',  ( 3.491481338843133355E-15, -1.224646799147353207E-16, 1.000000000000000000 ) ) ;
#129 = COORDINATED_UNIVERSAL_TIME_OFFSET ( 1, 0, .AHEAD. ) ;
#130 = ORIENTED_EDGE ( 'NONE', *, *, #131, .T. ) ;
#131 = EDGE_CURVE ( 'NONE', #127, #127, #221, .T. ) ;
#132 = CIRCLE ( 'NONE', #203, 0.7499999999999975575 ) ;
#133 = DATE_TIME_ROLE ( 'creation_date' ) ;
#134 = APPROVAL_DATE_TIME ( #2, #215 ) ;
#135 = EDGE_LOOP ( 'NONE', ( #26 ) ) ;
#136 = SHAPE_DEFINITION_REPRESENTATION ( #99, #68 ) ;
#137 = FACE_OUTER_BOUND ( 'NONE', #41, .T. ) ;
#138 = DIRECTION ( 'NONE',  ( 4.275831445896958607E-31, 1.000000000000000000, 1.224646799147353207E-16 ) ) ;
#139 = AXIS2_PLACEMENT_3D ( 'NONE', #81, #3, #158 ) ;
#140 = AXIS2_PLACEMENT_3D ( 'NONE', #29, #78, #154 ) ;
#141 = FACE_OUTER_BOUND ( 'NONE', #162, .T. ) ;
#142 = PERSON_AND_ORGANIZATION_ROLE ( 'design_owner' ) ;
#143 = APPROVAL_STATUS ( 'not_yet_approved' ) ;
#144 = AXIS2_PLACEMENT_3D ( 'NONE', #188, #15, #157 ) ;
#145 = CARTESIAN_POINT ( 'NONE',  ( 3.142333204958820651E-14, 0.5449999999999994849, 9.000000000000001776 ) ) ;
#146 = CONICAL_SURFACE ( 'NONE', #46, 0.7499999999999975575, 0.5235987755982944858 ) ;
#147 = AXIS2_PLACEMENT_3D ( 'NONE', #148, #74, #90 ) ;
#148 = CARTESIAN_POINT ( 'NONE',  ( 1.143352033026361089E-15, -4.010339084350640388E-17, 0.3274690373700233081 ) ) ;
#149 = EDGE_CURVE ( 'NONE', #163, #163, #123, .T. ) ;
#150 = CARTESIAN_POINT ( 'NONE',  ( 0.0000000000000000000, 0.0000000000000000000, 0.0000000000000000000 ) ) ;
#151 = ORIENTED_EDGE ( 'NONE', *, *, #212, .T. ) ;
#152 = AXIS2_PLACEMENT_3D ( 'NONE', #38, #56, #43 ) ;
#153 = ORIENTED_EDGE ( 'NONE', *, *, #75, .F. ) ;
#154 = DIRECTION ( 'NONE',  ( 0.0000000000000000000, 1.000000000000000000, 0.0000000000000000000 ) ) ;
#155 = PERSON_AND_ORGANIZATION ( #102, #67 ) ;
#156 = DIRECTION ( 'NONE',  ( 0.0000000000000000000, -1.000000000000000000, 0.0000000000000000000 ) ) ;
#157 = DIRECTION ( 'NONE',  ( -4.275831445896958607E-31, -1.000000000000000000, -1.224646799147353207E-16 ) ) ;
#158 = DIRECTION ( 'NONE',  ( 0.0000000000000000000, 1.000000000000000000, 0.0000000000000000000 ) ) ;
#159 = PRODUCT_DEFINITION ( 'UNKNOWN', '', #196, #25 ) ;
#160 = APPROVAL_PERSON_ORGANIZATION ( #70, #106, #71 ) ;
#161 = CIRCLE ( 'NONE', #208, 0.5450000000000005951 ) ;
#162 = EDGE_LOOP ( 'NONE', ( #57 ) ) ;
#163 = VERTEX_POINT ( 'NONE', #145 ) ;
#164 = DATE_AND_TIME ( #58, #193 ) ;
#165 = PERSON_AND_ORGANIZATION_ROLE ( 'design_supplier' ) ;
#166 = PERSON_AND_ORGANIZATION ( #102, #67 ) ;
#167 = LOCAL_TIME ( 7, 15, 1.000000000000000000, #201 ) ;
#168 = CARTESIAN_POINT ( 'NONE',  ( 1.047444401652940007E-13, 4.124339402320052999E-33, 30.00000000000000000 ) ) ;
#169 = DIRECTION ( 'NONE',  ( -3.491481338843133355E-15, 1.224646799147353207E-16, -1.000000000000000000 ) ) ;
#170 = CARTESIAN_POINT ( 'NONE',  ( 0.0000000000000000000, 0.0000000000000000000, 0.0000000000000000000 ) ) ;
#171 = AXIS2_PLACEMENT_3D ( 'NONE', #150, #55, #22 ) ;
#172 = DIRECTION ( 'NONE',  ( 0.0000000000000000000, 1.000000000000000000, 0.0000000000000000000 ) ) ;
#173 = CC_DESIGN_PERSON_AND_ORGANIZATION_ASSIGNMENT ( #109, #60, ( #196 ) ) ;
#174 = CARTESIAN_POINT ( 'NONE',  ( 1.047444401652940007E-13, 0.5499999999999963807, 30.00000000000000000 ) ) ;
#175 = APPROVAL_PERSON_ORGANIZATION ( #114, #215, #16 ) ;
#176 = CARTESIAN_POINT ( 'NONE',  ( 3.266305377946195173E-14, 0.7499999999999963363, 9.355070415551619334 ) ) ;
#177 = PERSON_AND_ORGANIZATION_ROLE ( 'classification_officer' ) ;
#178 = ADVANCED_FACE ( 'NONE', ( #77 ), #87, .T. ) ;
#179 = DATE_TIME_ROLE ( 'classification_date' ) ;
#180 = APPROVAL_ROLE ( '' ) ;
#181 = ORIENTED_EDGE ( 'NONE', *, *, #75, .T. ) ;
#182 = CLOSED_SHELL ( 'NONE', ( #178, #40, #187 ) ) ;
#183 = DIRECTION ( 'NONE',  ( 0.0000000000000000000, 1.000000000000000000, 0.0000000000000000000 ) ) ;
#184 = UNCERTAINTY_MEASURE_WITH_UNIT (LENGTH_MEASURE( 1.000000000000000082E-05 ), #205, 'distance_accuracy_value', 'NONE');
#185 = LOCAL_TIME ( 7, 15, 1.000000000000000000, #190 ) ;
#186 = CARTESIAN_POINT ( 'NONE',  ( 3.142333204958820651E-14, -1.102182119232617911E-15, 9.000000000000001776 ) ) ;
#187 = ADVANCED_FACE ( 'NONE', ( #117 ), #108, .T. ) ;
#188 = CARTESIAN_POINT ( 'NONE',  ( 3.142333204958820651E-14, -2.083555098183231510E-31, 9.000000000000001776 ) ) ;
#189 = CALENDAR_DATE ( 2021, 8, 10 ) ;
#190 = COORDINATED_UNIVERSAL_TIME_OFFSET ( 1, 0, .AHEAD. ) ;
#191 = DIRECTION ( 'NONE',  ( -3.491481338843133355E-15, 1.224646799147353207E-16, -1.000000000000000000 ) ) ;
#192 = APPROVAL_DATE_TIME ( #6, #106 ) ;
#193 = LOCAL_TIME ( 7, 15, 1.000000000000000000, #23 ) ;
#194 = PRODUCT_RELATED_PRODUCT_CATEGORY ( 'detail', '', ( #49 ) ) ;
#195 = MECHANICAL_CONTEXT ( 'NONE', #30, 'mechanical' ) ;
#196 = PRODUCT_DEFINITION_FORMATION_WITH_SPECIFIED_SOURCE ( 'ANY', '', #49, .NOT_KNOWN. ) ;
#197 = COORDINATED_UNIVERSAL_TIME_OFFSET ( 1, 0, .AHEAD. ) ;
#198 = VERTEX_POINT ( 'NONE', #36 ) ;
#199 = DIRECTION ( 'NONE',  ( -4.275831445896958607E-31, -1.000000000000000000, -1.224646799147353207E-16 ) ) ;
#200 = PERSON_AND_ORGANIZATION ( #102, #67 ) ;
#201 = COORDINATED_UNIVERSAL_TIME_OFFSET ( 1, 0, .AHEAD. ) ;
#202 = EDGE_CURVE ( 'NONE', #198, #198, #52, .T. ) ;
#203 = AXIS2_PLACEMENT_3D ( 'NONE', #113, #191, #172 ) ;
#204 = EDGE_LOOP ( 'NONE', ( #206 ) ) ;
#205 =( LENGTH_UNIT ( ) NAMED_UNIT ( * ) SI_UNIT ( .MILLI., .METRE. ) );
#206 = ORIENTED_EDGE ( 'NONE', *, *, #131, .F. ) ;
#207 = FACE_OUTER_BOUND ( 'NONE', #135, .T. ) ;
#208 = AXIS2_PLACEMENT_3D ( 'NONE', #186, #169, #48 ) ;
#209 = MANIFOLD_SOLID_BREP ( 'Corps-Déplacer/Copier1[2]', #182 ) ;
#210 = CARTESIAN_POINT ( 'NONE',  ( 0.0000000000000000000, 0.0000000000000000000, 0.0000000000000000000 ) ) ;
#211 = CARTESIAN_POINT ( 'NONE',  ( 1.047444401652940007E-13, -3.673940397442059178E-15, 30.00000000000000000 ) ) ;
#212 = EDGE_CURVE ( 'NONE', #37, #37, #132, .T. ) ;
#213 = DIRECTION ( 'NONE',  ( -3.491481338843133355E-15, 1.224646799147353207E-16, -1.000000000000000000 ) ) ;
#214 = CC_DESIGN_DATE_AND_TIME_ASSIGNMENT ( #164, #179, ( #66 ) ) ;
#215 = APPROVAL ( #143, 'UNSPECIFIED' ) ;
#216 = APPLICATION_PROTOCOL_DEFINITION ( 'international standard', 'config_control_design', 1994, #30 ) ;
#217 =( NAMED_UNIT ( * ) SI_UNIT ( $, .STERADIAN. ) SOLID_ANGLE_UNIT ( ) );
#218 = CC_DESIGN_APPROVAL ( #84, ( #66 ) ) ;
#219 = CARTESIAN_POINT ( 'NONE',  ( 3.142333204958820651E-14, -2.083555098183231510E-31, 9.000000000000001776 ) ) ;
#220 = EDGE_LOOP ( 'NONE', ( #115 ) ) ;
#221 = CIRCLE ( 'NONE', #140, 0.7499999999999998890 ) ;
#222 = EDGE_LOOP ( 'NONE', ( #153 ) ) ;
#223 = APPROVAL_STATUS ( 'not_yet_approved' ) ;
ENDSEC;
END-ISO-10303-21;
