ISO-10303-21;
HEADER;
FILE_DESCRIPTION (( 'STEP AP203' ),
    '1' );
FILE_NAME ('55360.step',
    '2021-10-08T05:15:00',
    ( '' ),
    ( '' ),
    'SwSTEP 2.0',
    'SolidWorks 2019',
    '' );
FILE_SCHEMA (( 'CONFIG_CONTROL_DESIGN' ));
ENDSEC;

DATA;
#1 = COORDINATED_UNIVERSAL_TIME_OFFSET ( 1, 0, .AHEAD. ) ;
#2 = CALENDAR_DATE ( 2021, 8, 10 ) ;
#3 = ADVANCED_BREP_SHAPE_REPRESENTATION ( '55360', ( #133, #57, #196 ), #168 ) ;
#4 = ADVANCED_FACE ( 'NONE', ( #128, #9 ), #163, .T. ) ;
#5 = LOCAL_TIME ( 7, 15, 0.0000000000000000000, #154 ) ;
#6 = PERSON_AND_ORGANIZATION_ROLE ( 'classification_officer' ) ;
#7 = EDGE_LOOP ( 'NONE', ( #140 ) ) ;
#8 = CIRCLE ( 'NONE', #61, 0.7499999999999998890 ) ;
#9 = FACE_OUTER_BOUND ( 'NONE', #175, .T. ) ;
#10 = DESIGN_CONTEXT ( 'detailed design', #184, 'design' ) ;
#11 = DIRECTION ( 'NONE',  ( -3.491481338843133355E-15, 1.224646799147353207E-16, -1.000000000000000000 ) ) ;
#12 = DIRECTION ( 'NONE',  ( 4.275831445896958607E-31, 1.000000000000000000, 1.224646799147353207E-16 ) ) ;
#13 = CIRCLE ( 'NONE', #118, 0.5399999999999989253 ) ;
#14 = DIRECTION ( 'NONE',  ( -3.491481338843133355E-15, 1.224646799147353207E-16, -1.000000000000000000 ) ) ;
#15 = VERTEX_POINT ( 'NONE', #204 ) ;
#16 = PERSON_AND_ORGANIZATION ( #76, #65 ) ;
#17 = AXIS2_PLACEMENT_3D ( 'NONE', #48, #33, #55 ) ;
#18 = CARTESIAN_POINT ( 'NONE',  ( 1.132862564833458805E-15, 0.5399999999999989253, 0.3244647342748855356 ) ) ;
#19 = EDGE_CURVE ( 'NONE', #223, #223, #13, .T. ) ;
#20 = APPROVAL_STATUS ( 'not_yet_approved' ) ;
#21 = PERSON_AND_ORGANIZATION ( #76, #65 ) ;
#22 = PRODUCT_DEFINITION ( 'UNKNOWN', '', #210, #10 ) ;
#23 = APPROVAL ( #172, 'UNSPECIFIED' ) ;
#24 = AXIS2_PLACEMENT_3D ( 'NONE', #165, #95, #77 ) ;
#25 = LOCAL_TIME ( 7, 15, 0.0000000000000000000, #221 ) ;
#26 = CARTESIAN_POINT ( 'NONE',  ( 1.040461438975253740E-13, -3.649447461459112464E-15, 29.80000000000000071 ) ) ;
#27 = DIRECTION ( 'NONE',  ( 3.566536934050443982E-31, 1.000000000000000000, 1.003890900449543174E-16 ) ) ;
#28 = CYLINDRICAL_SURFACE ( 'NONE', #130, 0.5399999999999992584 ) ;
#29 = AXIS2_PLACEMENT_3D ( 'NONE', #198, #81, #44 ) ;
#30 = ORIENTED_EDGE ( 'NONE', *, *, #174, .F. ) ;
#31 = PRODUCT ( '55360', '55360', '', ( #88 ) ) ;
#32 = FACE_OUTER_BOUND ( 'NONE', #7, .T. ) ;
#33 = DIRECTION ( 'NONE',  ( -3.491481338843133355E-15, 1.224646799147353207E-16, -1.000000000000000000 ) ) ;
#34 = CALENDAR_DATE ( 2021, 8, 10 ) ;
#35 = LOCAL_TIME ( 7, 15, 0.0000000000000000000, #70 ) ;
#36 = VERTEX_POINT ( 'NONE', #151 ) ;
#37 = ADVANCED_FACE ( 'NONE', ( #177 ), #80, .T. ) ;
#38 = VERTEX_POINT ( 'NONE', #166 ) ;
#39 = CC_DESIGN_SECURITY_CLASSIFICATION ( #189, ( #210 ) ) ;
#40 = ORIENTED_EDGE ( 'NONE', *, *, #97, .F. ) ;
#41 = CARTESIAN_POINT ( 'NONE',  ( 3.269329089482473308E-14, -1.146726279259063852E-15, 9.363730669589465094 ) ) ;
#42 = CONICAL_SURFACE ( 'NONE', #89, 0.5399999999999989253, 1.029744258676649649 ) ;
#43 = CARTESIAN_POINT ( 'NONE',  ( 0.0000000000000000000, 0.0000000000000000000, 0.0000000000000000000 ) ) ;
#44 = DIRECTION ( 'NONE',  ( 0.0000000000000000000, 1.000000000000000000, 0.0000000000000000000 ) ) ;
#45 = CC_DESIGN_PERSON_AND_ORGANIZATION_ASSIGNMENT ( #50, #187, ( #22 ) ) ;
#46 = FACE_BOUND ( 'NONE', #74, .T. ) ;
#47 = AXIS2_PLACEMENT_3D ( 'NONE', #64, #11, #146 ) ;
#48 = CARTESIAN_POINT ( 'NONE',  ( 3.142333204958820020E-14, -1.102182119232617714E-15, 9.000000000000000000 ) ) ;
#49 = CC_DESIGN_DATE_AND_TIME_ASSIGNMENT ( #68, #90, ( #22 ) ) ;
#50 = PERSON_AND_ORGANIZATION ( #76, #65 ) ;
#51 = PERSON_AND_ORGANIZATION ( #76, #65 ) ;
#52 = CLOSED_SHELL ( 'NONE', ( #92, #75, #4, #111, #202 ) ) ;
#53 = EDGE_CURVE ( 'NONE', #67, #67, #191, .T. ) ;
#54 = DIRECTION ( 'NONE',  ( 0.0000000000000000000, 0.0000000000000000000, 1.000000000000000000 ) ) ;
#55 = DIRECTION ( 'NONE',  ( 0.0000000000000000000, 1.000000000000000000, 0.0000000000000000000 ) ) ;
#56 = PERSON_AND_ORGANIZATION_ROLE ( 'design_supplier' ) ;
#57 = MANIFOLD_SOLID_BREP ( 'Corps-Déplacer/Copier1[2]', #147 ) ;
#58 = CIRCLE ( 'NONE', #17, 0.5399999999999994804 ) ;
#59 = ORIENTED_EDGE ( 'NONE', *, *, #217, .T. ) ;
#60 = FACE_OUTER_BOUND ( 'NONE', #113, .T. ) ;
#61 = AXIS2_PLACEMENT_3D ( 'NONE', #26, #14, #161 ) ;
#62 = DIRECTION ( 'NONE',  ( 3.491481338843133355E-15, -1.224646799147353207E-16, 1.000000000000000000 ) ) ;
#63 = CARTESIAN_POINT ( 'NONE',  ( 1.047444401652940007E-13, -3.673940397442059178E-15, 30.00000000000000000 ) ) ;
#64 = CARTESIAN_POINT ( 'NONE',  ( 3.269329089482473308E-14, -1.146726279259063852E-15, 9.363730669589465094 ) ) ;
#65 = ORGANIZATION ( 'UNSPECIFIED', 'UNSPECIFIED', '' ) ;
#66 = PERSON_AND_ORGANIZATION_ROLE ( 'design_owner' ) ;
#67 = VERTEX_POINT ( 'NONE', #185 ) ;
#68 = DATE_AND_TIME ( #34, #25 ) ;
#69 = APPROVAL_ROLE ( '' ) ;
#70 = COORDINATED_UNIVERSAL_TIME_OFFSET ( 1, 0, .AHEAD. ) ;
#71 = EDGE_LOOP ( 'NONE', ( #105 ) ) ;
#72 = CONICAL_SURFACE ( 'NONE', #158, 0.5500000000000000444, 0.7853981633974510546 ) ;
#73 = DATE_AND_TIME ( #2, #143 ) ;
#74 = EDGE_LOOP ( 'NONE', ( #30 ) ) ;
#75 = ADVANCED_FACE ( 'NONE', ( #46, #129 ), #176, .T. ) ;
#76 = PERSON ( 'UNSPECIFIED', 'UNSPECIFIED', 'UNSPECIFIED', ('UNSPECIFIED'), ('UNSPECIFIED'), ('UNSPECIFIED') ) ;
#77 = DIRECTION ( 'NONE',  ( -4.275831445896958607E-31, -1.000000000000000000, -1.224646799147353207E-16 ) ) ;
#78 = FACE_OUTER_BOUND ( 'NONE', #173, .T. ) ;
#79 = DIRECTION ( 'NONE',  ( -3.566536934050443982E-31, -1.000000000000000000, -1.003890900449543174E-16 ) ) ;
#80 = PLANE ( 'NONE',  #186 ) ;
#81 = DIRECTION ( 'NONE',  ( -3.491481338843133355E-15, 1.224646799147353207E-16, -1.000000000000000000 ) ) ;
#82 = CARTESIAN_POINT ( 'NONE',  ( 0.0000000000000000000, 0.0000000000000000000, 0.0000000000000000000 ) ) ;
#83 =( NAMED_UNIT ( * ) SI_UNIT ( $, .STERADIAN. ) SOLID_ANGLE_UNIT ( ) );
#84 = PRODUCT_DEFINITION_SHAPE ( 'NONE', 'NONE',  #22 ) ;
#85 = UNCERTAINTY_MEASURE_WITH_UNIT (LENGTH_MEASURE( 1.000000000000000082E-05 ), #120, 'distance_accuracy_value', 'NONE');
#86 = APPLICATION_PROTOCOL_DEFINITION ( 'international standard', 'config_control_design', 1994, #184 ) ;
#87 = CC_DESIGN_PERSON_AND_ORGANIZATION_ASSIGNMENT ( #171, #66, ( #31 ) ) ;
#88 = MECHANICAL_CONTEXT ( 'NONE', #179, 'mechanical' ) ;
#89 = AXIS2_PLACEMENT_3D ( 'NONE', #197, #178, #79 ) ;
#90 = DATE_TIME_ROLE ( 'creation_date' ) ;
#91 = DATE_TIME_ROLE ( 'classification_date' ) ;
#92 = ADVANCED_FACE ( 'NONE', ( #32 ), #110, .F. ) ;
#93 = EDGE_LOOP ( 'NONE', ( #59 ) ) ;
#94 = DIRECTION ( 'NONE',  ( 0.0000000000000000000, -1.000000000000000000, 0.0000000000000000000 ) ) ;
#95 = DIRECTION ( 'NONE',  ( 3.491481338843133355E-15, -1.224646799147353207E-16, 1.000000000000000000 ) ) ;
#96 = ORIENTED_EDGE ( 'NONE', *, *, #53, .F. ) ;
#97 = EDGE_CURVE ( 'NONE', #36, #36, #8, .T. ) ;
#98 = DIRECTION ( 'NONE',  ( 0.0000000000000000000, 1.000000000000000000, 0.0000000000000000000 ) ) ;
#99 = DIRECTION ( 'NONE',  ( -3.491481338843133355E-15, 1.224646799147353207E-16, -1.000000000000000000 ) ) ;
#100 = ADVANCED_FACE ( 'NONE', ( #195, #149 ), #28, .T. ) ;
#101 = DATE_AND_TIME ( #222, #5 ) ;
#102 = APPROVAL_PERSON_ORGANIZATION ( #131, #209, #153 ) ;
#103 = CALENDAR_DATE ( 2021, 8, 10 ) ;
#104 = ORIENTED_EDGE ( 'NONE', *, *, #19, .T. ) ;
#105 = ORIENTED_EDGE ( 'NONE', *, *, #53, .T. ) ;
#106 = AXIS2_PLACEMENT_3D ( 'NONE', #112, #199, #200 ) ;
#107 = CC_DESIGN_PERSON_AND_ORGANIZATION_ASSIGNMENT ( #21, #6, ( #189 ) ) ;
#108 = ORIENTED_EDGE ( 'NONE', *, *, #19, .F. ) ;
#109 = DIRECTION ( 'NONE',  ( -4.275831445896958607E-31, -1.000000000000000000, -1.224646799147353207E-16 ) ) ;
#110 = PLANE ( 'NONE',  #24 ) ;
#111 = ADVANCED_FACE ( 'NONE', ( #78, #213 ), #72, .T. ) ;
#112 = CARTESIAN_POINT ( 'NONE',  ( 1.047444401652940007E-13, 4.124339402320052999E-33, 30.00000000000000000 ) ) ;
#113 = EDGE_LOOP ( 'NONE', ( #104 ) ) ;
#114 = APPROVAL_PERSON_ORGANIZATION ( #16, #205, #69 ) ;
#115 = DIRECTION ( 'NONE',  ( 4.275831445896959482E-31, 1.000000000000000000, 1.224646799147353207E-16 ) ) ;
#116 = CALENDAR_DATE ( 2021, 8, 10 ) ;
#117 = APPROVAL_DATE_TIME ( #183, #205 ) ;
#118 = AXIS2_PLACEMENT_3D ( 'NONE', #212, #216, #27 ) ;
#119 = APPROVAL_DATE_TIME ( #101, #209 ) ;
#120 =( LENGTH_UNIT ( ) NAMED_UNIT ( * ) SI_UNIT ( .MILLI., .METRE. ) );
#121 = CC_DESIGN_DATE_AND_TIME_ASSIGNMENT ( #122, #91, ( #189 ) ) ;
#122 = DATE_AND_TIME ( #103, #35 ) ;
#123 = APPROVAL_ROLE ( '' ) ;
#124 = CARTESIAN_POINT ( 'NONE',  ( 3.142333204958820020E-14, 4.049351413186995151E-33, 9.000000000000000000 ) ) ;
#125 = EDGE_LOOP ( 'NONE', ( #96 ) ) ;
#126 = CC_DESIGN_APPROVAL ( #205, ( #210 ) ) ;
#127 = DIRECTION ( 'NONE',  ( 0.0000000000000000000, 1.000000000000000000, 0.0000000000000000000 ) ) ;
#128 = FACE_OUTER_BOUND ( 'NONE', #125, .T. ) ;
#129 = FACE_OUTER_BOUND ( 'NONE', #71, .T. ) ;
#130 = AXIS2_PLACEMENT_3D ( 'NONE', #218, #181, #12 ) ;
#131 = PERSON_AND_ORGANIZATION ( #76, #65 ) ;
#132 = APPROVAL_STATUS ( 'not_yet_approved' ) ;
#133 = MANIFOLD_SOLID_BREP ( 'Corps-Déplacer/Copier1[1]', #52 ) ;
#134 = VERTEX_POINT ( 'NONE', #167 ) ;
#135 = PRODUCT_RELATED_PRODUCT_CATEGORY ( 'detail', '', ( #31 ) ) ;
#136 = DIRECTION ( 'NONE',  ( 1.000000000000000000, 0.0000000000000000000, 0.0000000000000000000 ) ) ;
#137 = COORDINATED_UNIVERSAL_TIME_OFFSET ( 1, 0, .AHEAD. ) ;
#138 = PERSON_AND_ORGANIZATION ( #76, #65 ) ;
#139 = APPROVAL_DATE_TIME ( #73, #23 ) ;
#140 = ORIENTED_EDGE ( 'NONE', *, *, #174, .T. ) ;
#141 = AXIS2_PLACEMENT_3D ( 'NONE', #41, #182, #94 ) ;
#142 = ADVANCED_FACE ( 'NONE', ( #60 ), #42, .T. ) ;
#143 = LOCAL_TIME ( 7, 15, 0.0000000000000000000, #1 ) ;
#144 = EDGE_LOOP ( 'NONE', ( #159 ) ) ;
#145 = FACE_OUTER_BOUND ( 'NONE', #194, .T. ) ;
#146 = DIRECTION ( 'NONE',  ( 0.0000000000000000000, 1.000000000000000000, 0.0000000000000000000 ) ) ;
#147 = CLOSED_SHELL ( 'NONE', ( #142, #100, #37 ) ) ;
#148 = DIRECTION ( 'NONE',  ( -3.491481338843133355E-15, 1.224646799147353207E-16, -1.000000000000000000 ) ) ;
#149 = FACE_OUTER_BOUND ( 'NONE', #93, .T. ) ;
#150 = PLANE ( 'NONE',  #106 ) ;
#151 = CARTESIAN_POINT ( 'NONE',  ( 1.040461438975253740E-13, 0.7499999999999962252, 29.80000000000000071 ) ) ;
#152 = CC_DESIGN_APPROVAL ( #209, ( #22 ) ) ;
#153 = APPROVAL_ROLE ( '' ) ;
#154 = COORDINATED_UNIVERSAL_TIME_OFFSET ( 1, 0, .AHEAD. ) ;
#155 = SECURITY_CLASSIFICATION_LEVEL ( 'unclassified' ) ;
#156 = APPROVAL_PERSON_ORGANIZATION ( #138, #23, #123 ) ;
#157 = EDGE_LOOP ( 'NONE', ( #180 ) ) ;
#158 = AXIS2_PLACEMENT_3D ( 'NONE', #63, #99, #98 ) ;
#159 = ORIENTED_EDGE ( 'NONE', *, *, #217, .F. ) ;
#160 = EDGE_CURVE ( 'NONE', #134, #134, #192, .T. ) ;
#161 = DIRECTION ( 'NONE',  ( 0.0000000000000000000, 1.000000000000000000, 0.0000000000000000000 ) ) ;
#162 = CARTESIAN_POINT ( 'NONE',  ( 1.047444401652940007E-13, -3.673940397442059178E-15, 30.00000000000000000 ) ) ;
#163 = CYLINDRICAL_SURFACE ( 'NONE', #214, 0.7499999999999986677 ) ;
#164 = CC_DESIGN_APPROVAL ( #23, ( #189 ) ) ;
#165 = CARTESIAN_POINT ( 'NONE',  ( 3.142333204958820020E-14, 4.049351413186995151E-33, 9.000000000000000000 ) ) ;
#166 = CARTESIAN_POINT ( 'NONE',  ( 3.142333204958820020E-14, 0.5399999999999983702, 9.000000000000000000 ) ) ;
#167 = CARTESIAN_POINT ( 'NONE',  ( 1.047444401652940007E-13, 0.5499999999999963807, 30.00000000000000000 ) ) ;
#168 =( GEOMETRIC_REPRESENTATION_CONTEXT ( 3 ) GLOBAL_UNCERTAINTY_ASSIGNED_CONTEXT ( ( #85 ) ) GLOBAL_UNIT_ASSIGNED_CONTEXT ( ( #120, #169, #83 ) ) REPRESENTATION_CONTEXT ( 'NONE', 'WORKASPACE' ) );
#169 =( NAMED_UNIT ( * ) PLANE_ANGLE_UNIT ( ) SI_UNIT ( $, .RADIAN. ) );
#170 = APPLICATION_PROTOCOL_DEFINITION ( 'international standard', 'config_control_design', 1994, #179 ) ;
#171 = PERSON_AND_ORGANIZATION ( #76, #65 ) ;
#172 = APPROVAL_STATUS ( 'not_yet_approved' ) ;
#173 = EDGE_LOOP ( 'NONE', ( #40 ) ) ;
#174 = EDGE_CURVE ( 'NONE', #15, #15, #201, .T. ) ;
#175 = EDGE_LOOP ( 'NONE', ( #208 ) ) ;
#176 = CONICAL_SURFACE ( 'NONE', #141, 0.7499999999999975575, 0.5235987755982938197 ) ;
#177 = FACE_OUTER_BOUND ( 'NONE', #144, .T. ) ;
#178 = DIRECTION ( 'NONE',  ( 3.491481338843133355E-15, -1.224646799147353207E-16, 1.000000000000000000 ) ) ;
#179 = APPLICATION_CONTEXT ( 'configuration controlled 3d designs of mechanical parts and assemblies' ) ;
#180 = ORIENTED_EDGE ( 'NONE', *, *, #160, .T. ) ;
#181 = DIRECTION ( 'NONE',  ( -3.491481338843133355E-15, 1.224646799147353207E-16, -1.000000000000000000 ) ) ;
#182 = DIRECTION ( 'NONE',  ( 3.491481338843133355E-15, -1.224646799147353207E-16, 1.000000000000000000 ) ) ;
#183 = DATE_AND_TIME ( #116, #193 ) ;
#184 = APPLICATION_CONTEXT ( 'configuration controlled 3d designs of mechanical parts and assemblies' ) ;
#185 = CARTESIAN_POINT ( 'NONE',  ( 3.269329089482473308E-14, 0.7499999999999963363, 9.363730669589465094 ) ) ;
#186 = AXIS2_PLACEMENT_3D ( 'NONE', #124, #62, #109 ) ;
#187 = PERSON_AND_ORGANIZATION_ROLE ( 'creator' ) ;
#188 = CC_DESIGN_PERSON_AND_ORGANIZATION_ASSIGNMENT ( #51, #56, ( #210 ) ) ;
#189 = SECURITY_CLASSIFICATION ( '', '', #155 ) ;
#190 = CC_DESIGN_PERSON_AND_ORGANIZATION_ASSIGNMENT ( #220, #203, ( #210 ) ) ;
#191 = CIRCLE ( 'NONE', #47, 0.7499999999999975575 ) ;
#192 = CIRCLE ( 'NONE', #215, 0.5500000000000000444 ) ;
#193 = LOCAL_TIME ( 7, 15, 0.0000000000000000000, #137 ) ;
#194 = EDGE_LOOP ( 'NONE', ( #211 ) ) ;
#195 = FACE_OUTER_BOUND ( 'NONE', #207, .T. ) ;
#196 = AXIS2_PLACEMENT_3D ( 'NONE', #82, #54, #136 ) ;
#197 = CARTESIAN_POINT ( 'NONE',  ( 1.132862564833458608E-15, -3.973546982659350347E-17, 0.3244647342748854801 ) ) ;
#198 = CARTESIAN_POINT ( 'NONE',  ( 3.142333204958820020E-14, -1.102182119232617714E-15, 9.000000000000000000 ) ) ;
#199 = DIRECTION ( 'NONE',  ( -3.491481338843133355E-15, 1.224646799147353207E-16, -1.000000000000000000 ) ) ;
#200 = DIRECTION ( 'NONE',  ( 4.275831445896958607E-31, 1.000000000000000000, 1.224646799147353207E-16 ) ) ;
#201 = CIRCLE ( 'NONE', #29, 0.5399999999999994804 ) ;
#202 = ADVANCED_FACE ( 'NONE', ( #145 ), #150, .F. ) ;
#203 = PERSON_AND_ORGANIZATION_ROLE ( 'creator' ) ;
#204 = CARTESIAN_POINT ( 'NONE',  ( 3.142333204958820020E-14, 0.5399999999999983702, 9.000000000000000000 ) ) ;
#205 = APPROVAL ( #132, 'UNSPECIFIED' ) ;
#206 = SHAPE_DEFINITION_REPRESENTATION ( #84, #3 ) ;
#207 = EDGE_LOOP ( 'NONE', ( #108 ) ) ;
#208 = ORIENTED_EDGE ( 'NONE', *, *, #97, .T. ) ;
#209 = APPROVAL ( #20, 'UNSPECIFIED' ) ;
#210 = PRODUCT_DEFINITION_FORMATION_WITH_SPECIFIED_SOURCE ( 'ANY', '', #31, .NOT_KNOWN. ) ;
#211 = ORIENTED_EDGE ( 'NONE', *, *, #160, .F. ) ;
#212 = CARTESIAN_POINT ( 'NONE',  ( 1.132862564833458608E-15, -3.973546982659350347E-17, 0.3244647342748854801 ) ) ;
#213 = FACE_BOUND ( 'NONE', #157, .T. ) ;
#214 = AXIS2_PLACEMENT_3D ( 'NONE', #43, #219, #115 ) ;
#215 = AXIS2_PLACEMENT_3D ( 'NONE', #162, #148, #127 ) ;
#216 = DIRECTION ( 'NONE',  ( -3.491481338843133355E-15, 1.224646799147353207E-16, -1.000000000000000000 ) ) ;
#217 = EDGE_CURVE ( 'NONE', #38, #38, #58, .T. ) ;
#218 = CARTESIAN_POINT ( 'NONE',  ( 0.0000000000000000000, 0.0000000000000000000, 0.0000000000000000000 ) ) ;
#219 = DIRECTION ( 'NONE',  ( -3.491481338843133355E-15, 1.224646799147353207E-16, -1.000000000000000000 ) ) ;
#220 = PERSON_AND_ORGANIZATION ( #76, #65 ) ;
#221 = COORDINATED_UNIVERSAL_TIME_OFFSET ( 1, 0, .AHEAD. ) ;
#222 = CALENDAR_DATE ( 2021, 8, 10 ) ;
#223 = VERTEX_POINT ( 'NONE', #18 ) ;
ENDSEC;
END-ISO-10303-21;
