ISO-10303-21;
HEADER;
FILE_DESCRIPTION (( 'STEP AP203' ),
    '1' );
FILE_NAME ('55359.step',
    '2021-10-08T05:14:59',
    ( '' ),
    ( '' ),
    'SwSTEP 2.0',
    'SolidWorks 2019',
    '' );
FILE_SCHEMA (( 'CONFIG_CONTROL_DESIGN' ));
ENDSEC;

DATA;
#1 = AXIS2_PLACEMENT_3D ( 'NONE', #66, #120, #190 ) ;
#2 = CC_DESIGN_APPROVAL ( #37, ( #178 ) ) ;
#3 = FACE_BOUND ( 'NONE', #155, .T. ) ;
#4 = CONICAL_SURFACE ( 'NONE', #42, 0.5500000000000000444, 0.7853981633974510546 ) ;
#5 = DIRECTION ( 'NONE',  ( 0.0000000000000000000, 0.0000000000000000000, 1.000000000000000000 ) ) ;
#6 = CARTESIAN_POINT ( 'NONE',  ( 1.122373096640556325E-15, -3.936754880968059689E-17, 0.3214604311797476521 ) ) ;
#7 = ORIENTED_EDGE ( 'NONE', *, *, #83, .T. ) ;
#8 = CARTESIAN_POINT ( 'NONE',  ( 0.0000000000000000000, 0.0000000000000000000, 0.0000000000000000000 ) ) ;
#9 = DIRECTION ( 'NONE',  ( 3.491481338843133355E-15, -1.224646799147353207E-16, 1.000000000000000000 ) ) ;
#10 = CARTESIAN_POINT ( 'NONE',  ( 1.122373096640556522E-15, 0.5349999999999989209, 0.3214604311797477076 ) ) ;
#11 = PERSON_AND_ORGANIZATION ( #28, #17 ) ;
#12 = APPROVAL ( #135, 'UNSPECIFIED' ) ;
#13 = DIRECTION ( 'NONE',  ( -4.275831445896958607E-31, -1.000000000000000000, -1.224646799147353207E-16 ) ) ;
#14 = EDGE_LOOP ( 'NONE', ( #203 ) ) ;
#15 = DATE_AND_TIME ( #103, #102 ) ;
#16 = CARTESIAN_POINT ( 'NONE',  ( 1.047444401652940007E-13, -3.673940397442059178E-15, 30.00000000000000000 ) ) ;
#17 = ORGANIZATION ( 'UNSPECIFIED', 'UNSPECIFIED', '' ) ;
#18 = DATE_AND_TIME ( #177, #113 ) ;
#19 = CARTESIAN_POINT ( 'NONE',  ( 1.040461438975253740E-13, 0.7499999999999962252, 29.80000000000000071 ) ) ;
#20 = EDGE_LOOP ( 'NONE', ( #7 ) ) ;
#21 = PLANE ( 'NONE',  #33 ) ;
#22 = DIRECTION ( 'NONE',  ( 0.0000000000000000000, 1.000000000000000000, 0.0000000000000000000 ) ) ;
#23 = AXIS2_PLACEMENT_3D ( 'NONE', #197, #47, #168 ) ;
#24 = CARTESIAN_POINT ( 'NONE',  ( 3.272352801018750813E-14, 0.7499999999999963363, 9.372390923627307302 ) ) ;
#25 = PERSON_AND_ORGANIZATION_ROLE ( 'design_supplier' ) ;
#26 = DATE_AND_TIME ( #65, #81 ) ;
#27 = AXIS2_PLACEMENT_3D ( 'NONE', #87, #126, #174 ) ;
#28 = PERSON ( 'UNSPECIFIED', 'UNSPECIFIED', 'UNSPECIFIED', ('UNSPECIFIED'), ('UNSPECIFIED'), ('UNSPECIFIED') ) ;
#29 = CONICAL_SURFACE ( 'NONE', #23, 0.7499999999999975575, 0.5235987755982945968 ) ;
#30 =( GEOMETRIC_REPRESENTATION_CONTEXT ( 3 ) GLOBAL_UNCERTAINTY_ASSIGNED_CONTEXT ( ( #140 ) ) GLOBAL_UNIT_ASSIGNED_CONTEXT ( ( #194, #53, #165 ) ) REPRESENTATION_CONTEXT ( 'NONE', 'WORKASPACE' ) );
#31 = ADVANCED_FACE ( 'NONE', ( #98 ), #21, .F. ) ;
#32 = COORDINATED_UNIVERSAL_TIME_OFFSET ( 1, 0, .AHEAD. ) ;
#33 = AXIS2_PLACEMENT_3D ( 'NONE', #95, #133, #13 ) ;
#34 = CIRCLE ( 'NONE', #172, 0.7499999999999998890 ) ;
#35 = FACE_OUTER_BOUND ( 'NONE', #59, .T. ) ;
#36 = ORIENTED_EDGE ( 'NONE', *, *, #83, .F. ) ;
#37 = APPROVAL ( #169, 'UNSPECIFIED' ) ;
#38 = DIRECTION ( 'NONE',  ( 3.599869054929420229E-31, 1.000000000000000000, 1.013273058397669784E-16 ) ) ;
#39 = CARTESIAN_POINT ( 'NONE',  ( 1.047444401652940007E-13, -3.673940397442059178E-15, 30.00000000000000000 ) ) ;
#40 = DIRECTION ( 'NONE',  ( 0.0000000000000000000, 1.000000000000000000, 0.0000000000000000000 ) ) ;
#41 = CLOSED_SHELL ( 'NONE', ( #44, #179, #88 ) ) ;
#42 = AXIS2_PLACEMENT_3D ( 'NONE', #39, #209, #107 ) ;
#43 = DATE_TIME_ROLE ( 'creation_date' ) ;
#44 = ADVANCED_FACE ( 'NONE', ( #58 ), #167, .T. ) ;
#45 = COORDINATED_UNIVERSAL_TIME_OFFSET ( 1, 0, .AHEAD. ) ;
#46 = APPROVAL_DATE_TIME ( #26, #37 ) ;
#47 = DIRECTION ( 'NONE',  ( 3.491481338843133355E-15, -1.224646799147353207E-16, 1.000000000000000000 ) ) ;
#48 = MANIFOLD_SOLID_BREP ( 'Corps-Déplacer/Copier1[2]', #41 ) ;
#49 = MANIFOLD_SOLID_BREP ( 'Corps-Déplacer/Copier1[1]', #141 ) ;
#50 = CIRCLE ( 'NONE', #138, 0.5500000000000000444 ) ;
#51 = PLANE ( 'NONE',  #1 ) ;
#52 = PERSON_AND_ORGANIZATION ( #28, #17 ) ;
#53 =( NAMED_UNIT ( * ) PLANE_ANGLE_UNIT ( ) SI_UNIT ( $, .RADIAN. ) );
#54 = AXIS2_PLACEMENT_3D ( 'NONE', #154, #184, #215 ) ;
#55 = CC_DESIGN_PERSON_AND_ORGANIZATION_ASSIGNMENT ( #132, #109, ( #123 ) ) ;
#56 = AXIS2_PLACEMENT_3D ( 'NONE', #6, #191, #38 ) ;
#57 = CARTESIAN_POINT ( 'NONE',  ( 1.047444401652940007E-13, 4.124339402320052999E-33, 30.00000000000000000 ) ) ;
#58 = FACE_OUTER_BOUND ( 'NONE', #80, .T. ) ;
#59 = EDGE_LOOP ( 'NONE', ( #97 ) ) ;
#60 = CC_DESIGN_PERSON_AND_ORGANIZATION_ASSIGNMENT ( #121, #25, ( #186 ) ) ;
#61 = ORIENTED_EDGE ( 'NONE', *, *, #188, .F. ) ;
#62 = SECURITY_CLASSIFICATION_LEVEL ( 'unclassified' ) ;
#63 = FACE_OUTER_BOUND ( 'NONE', #72, .T. ) ;
#64 = DIRECTION ( 'NONE',  ( -3.491481338843133355E-15, 1.224646799147353207E-16, -1.000000000000000000 ) ) ;
#65 = CALENDAR_DATE ( 2021, 8, 10 ) ;
#66 = CARTESIAN_POINT ( 'NONE',  ( 3.142333204958820020E-14, 4.011857418620450490E-33, 9.000000000000000000 ) ) ;
#67 = APPROVAL_ROLE ( '' ) ;
#68 = CIRCLE ( 'NONE', #27, 0.5349999999999996980 ) ;
#69 = APPROVAL_PERSON_ORGANIZATION ( #52, #192, #127 ) ;
#70 = APPLICATION_CONTEXT ( 'configuration controlled 3d designs of mechanical parts and assemblies' ) ;
#71 = PLANE ( 'NONE',  #210 ) ;
#72 = EDGE_LOOP ( 'NONE', ( #86 ) ) ;
#73 = CC_DESIGN_PERSON_AND_ORGANIZATION_ASSIGNMENT ( #200, #189, ( #178 ) ) ;
#74 = ORIENTED_EDGE ( 'NONE', *, *, #146, .F. ) ;
#75 = CYLINDRICAL_SURFACE ( 'NONE', #99, 0.5349999999999992539 ) ;
#76 = DIRECTION ( 'NONE',  ( 1.000000000000000000, 0.0000000000000000000, 0.0000000000000000000 ) ) ;
#77 = DIRECTION ( 'NONE',  ( -3.599869054929420229E-31, -1.000000000000000000, -1.013273058397669784E-16 ) ) ;
#78 = VERTEX_POINT ( 'NONE', #19 ) ;
#79 = PERSON_AND_ORGANIZATION ( #28, #17 ) ;
#80 = EDGE_LOOP ( 'NONE', ( #156 ) ) ;
#81 = LOCAL_TIME ( 7, 14, 59.00000000000000000, #137 ) ;
#82 = APPROVAL_DATE_TIME ( #148, #12 ) ;
#83 = EDGE_CURVE ( 'NONE', #110, #110, #68, .T. ) ;
#84 = PRODUCT_DEFINITION_SHAPE ( 'NONE', 'NONE',  #219 ) ;
#85 = AXIS2_PLACEMENT_3D ( 'NONE', #131, #9, #77 ) ;
#86 = ORIENTED_EDGE ( 'NONE', *, *, #216, .T. ) ;
#87 = CARTESIAN_POINT ( 'NONE',  ( 3.142333204958820020E-14, -1.102182119232617714E-15, 9.000000000000000000 ) ) ;
#88 = ADVANCED_FACE ( 'NONE', ( #90 ), #51, .T. ) ;
#89 = FACE_BOUND ( 'NONE', #129, .T. ) ;
#90 = FACE_OUTER_BOUND ( 'NONE', #111, .T. ) ;
#91 = CC_DESIGN_APPROVAL ( #12, ( #186 ) ) ;
#92 = VERTEX_POINT ( 'NONE', #143 ) ;
#93 = ORIENTED_EDGE ( 'NONE', *, *, #146, .T. ) ;
#94 = DIRECTION ( 'NONE',  ( 4.275831445896958607E-31, 1.000000000000000000, 1.224646799147353207E-16 ) ) ;
#95 = CARTESIAN_POINT ( 'NONE',  ( 3.142333204958820020E-14, 4.011857418620450490E-33, 9.000000000000000000 ) ) ;
#96 = VERTEX_POINT ( 'NONE', #24 ) ;
#97 = ORIENTED_EDGE ( 'NONE', *, *, #201, .F. ) ;
#98 = FACE_OUTER_BOUND ( 'NONE', #20, .T. ) ;
#99 = AXIS2_PLACEMENT_3D ( 'NONE', #8, #182, #195 ) ;
#100 = DIRECTION ( 'NONE',  ( -3.491481338843133355E-15, 1.224646799147353207E-16, -1.000000000000000000 ) ) ;
#101 = EDGE_LOOP ( 'NONE', ( #61 ) ) ;
#102 = LOCAL_TIME ( 7, 14, 59.00000000000000000, #153 ) ;
#103 = CALENDAR_DATE ( 2021, 8, 10 ) ;
#104 = DATE_TIME_ROLE ( 'classification_date' ) ;
#105 = EDGE_LOOP ( 'NONE', ( #93 ) ) ;
#106 = ADVANCED_FACE ( 'NONE', ( #3, #144 ), #29, .T. ) ;
#107 = DIRECTION ( 'NONE',  ( 0.0000000000000000000, 1.000000000000000000, 0.0000000000000000000 ) ) ;
#108 = EDGE_CURVE ( 'NONE', #96, #96, #117, .T. ) ;
#109 = PERSON_AND_ORGANIZATION_ROLE ( 'design_owner' ) ;
#110 = VERTEX_POINT ( 'NONE', #164 ) ;
#111 = EDGE_LOOP ( 'NONE', ( #74 ) ) ;
#112 = APPLICATION_PROTOCOL_DEFINITION ( 'international standard', 'config_control_design', 1994, #124 ) ;
#113 = LOCAL_TIME ( 7, 14, 59.00000000000000000, #32 ) ;
#114 = FACE_OUTER_BOUND ( 'NONE', #205, .T. ) ;
#115 = CC_DESIGN_DATE_AND_TIME_ASSIGNMENT ( #15, #43, ( #219 ) ) ;
#116 = CARTESIAN_POINT ( 'NONE',  ( 3.272352801018750813E-14, -1.147786854497788699E-15, 9.372390923627307302 ) ) ;
#117 = CIRCLE ( 'NONE', #152, 0.7499999999999975575 ) ;
#118 = CARTESIAN_POINT ( 'NONE',  ( 0.0000000000000000000, 0.0000000000000000000, 0.0000000000000000000 ) ) ;
#119 = CC_DESIGN_SECURITY_CLASSIFICATION ( #178, ( #186 ) ) ;
#120 = DIRECTION ( 'NONE',  ( 3.491481338843133355E-15, -1.224646799147353207E-16, 1.000000000000000000 ) ) ;
#121 = PERSON_AND_ORGANIZATION ( #28, #17 ) ;
#122 = DIRECTION ( 'NONE',  ( 0.0000000000000000000, 1.000000000000000000, 0.0000000000000000000 ) ) ;
#123 = PRODUCT ( '55359', '55359', '', ( #145 ) ) ;
#124 = APPLICATION_CONTEXT ( 'configuration controlled 3d designs of mechanical parts and assemblies' ) ;
#125 = CC_DESIGN_PERSON_AND_ORGANIZATION_ASSIGNMENT ( #193, #180, ( #219 ) ) ;
#126 = DIRECTION ( 'NONE',  ( -3.491481338843133355E-15, 1.224646799147353207E-16, -1.000000000000000000 ) ) ;
#127 = APPROVAL_ROLE ( '' ) ;
#128 = APPROVAL_DATE_TIME ( #18, #192 ) ;
#129 = EDGE_LOOP ( 'NONE', ( #159 ) ) ;
#130 = APPROVAL_STATUS ( 'not_yet_approved' ) ;
#131 = CARTESIAN_POINT ( 'NONE',  ( 1.122373096640556325E-15, -3.936754880968059689E-17, 0.3214604311797476521 ) ) ;
#132 = PERSON_AND_ORGANIZATION ( #28, #17 ) ;
#133 = DIRECTION ( 'NONE',  ( 3.491481338843133355E-15, -1.224646799147353207E-16, 1.000000000000000000 ) ) ;
#134 = LOCAL_TIME ( 7, 14, 59.00000000000000000, #45 ) ;
#135 = APPROVAL_STATUS ( 'not_yet_approved' ) ;
#136 = CYLINDRICAL_SURFACE ( 'NONE', #208, 0.7499999999999986677 ) ;
#137 = COORDINATED_UNIVERSAL_TIME_OFFSET ( 1, 0, .AHEAD. ) ;
#138 = AXIS2_PLACEMENT_3D ( 'NONE', #16, #175, #22 ) ;
#139 = EDGE_LOOP ( 'NONE', ( #151 ) ) ;
#140 = UNCERTAINTY_MEASURE_WITH_UNIT (LENGTH_MEASURE( 1.000000000000000082E-05 ), #194, 'distance_accuracy_value', 'NONE');
#141 = CLOSED_SHELL ( 'NONE', ( #31, #106, #157, #160, #196 ) ) ;
#142 = CIRCLE ( 'NONE', #56, 0.5349999999999989209 ) ;
#143 = CARTESIAN_POINT ( 'NONE',  ( 3.142333204958820020E-14, 0.5349999999999985878, 9.000000000000000000 ) ) ;
#144 = FACE_OUTER_BOUND ( 'NONE', #139, .T. ) ;
#145 = MECHANICAL_CONTEXT ( 'NONE', #70, 'mechanical' ) ;
#146 = EDGE_CURVE ( 'NONE', #92, #92, #158, .T. ) ;
#147 = CARTESIAN_POINT ( 'NONE',  ( 1.040461438975253740E-13, -3.649447461459112464E-15, 29.80000000000000071 ) ) ;
#148 = DATE_AND_TIME ( #187, #199 ) ;
#149 = APPROVAL_PERSON_ORGANIZATION ( #11, #12, #185 ) ;
#150 = DATE_AND_TIME ( #220, #134 ) ;
#151 = ORIENTED_EDGE ( 'NONE', *, *, #108, .T. ) ;
#152 = AXIS2_PLACEMENT_3D ( 'NONE', #116, #64, #122 ) ;
#153 = COORDINATED_UNIVERSAL_TIME_OFFSET ( 1, 0, .AHEAD. ) ;
#154 = CARTESIAN_POINT ( 'NONE',  ( 3.142333204958820020E-14, -1.102182119232617714E-15, 9.000000000000000000 ) ) ;
#155 = EDGE_LOOP ( 'NONE', ( #36 ) ) ;
#156 = ORIENTED_EDGE ( 'NONE', *, *, #188, .T. ) ;
#157 = ADVANCED_FACE ( 'NONE', ( #114, #63 ), #136, .T. ) ;
#158 = CIRCLE ( 'NONE', #54, 0.5349999999999996980 ) ;
#159 = ORIENTED_EDGE ( 'NONE', *, *, #201, .T. ) ;
#160 = ADVANCED_FACE ( 'NONE', ( #221, #89 ), #4, .T. ) ;
#161 = FACE_OUTER_BOUND ( 'NONE', #101, .T. ) ;
#162 = CARTESIAN_POINT ( 'NONE',  ( 0.0000000000000000000, 0.0000000000000000000, 0.0000000000000000000 ) ) ;
#163 = VERTEX_POINT ( 'NONE', #10 ) ;
#164 = CARTESIAN_POINT ( 'NONE',  ( 3.142333204958820020E-14, 0.5349999999999985878, 9.000000000000000000 ) ) ;
#165 =( NAMED_UNIT ( * ) SI_UNIT ( $, .STERADIAN. ) SOLID_ANGLE_UNIT ( ) );
#166 = CC_DESIGN_APPROVAL ( #192, ( #219 ) ) ;
#167 = CONICAL_SURFACE ( 'NONE', #85, 0.5349999999999989209, 1.029744258676649649 ) ;
#168 = DIRECTION ( 'NONE',  ( 0.0000000000000000000, -1.000000000000000000, 0.0000000000000000000 ) ) ;
#169 = APPROVAL_STATUS ( 'not_yet_approved' ) ;
#170 = PRODUCT_RELATED_PRODUCT_CATEGORY ( 'detail', '', ( #123 ) ) ;
#171 = DIRECTION ( 'NONE',  ( -3.491481338843133355E-15, 1.224646799147353207E-16, -1.000000000000000000 ) ) ;
#172 = AXIS2_PLACEMENT_3D ( 'NONE', #147, #100, #40 ) ;
#173 = CC_DESIGN_DATE_AND_TIME_ASSIGNMENT ( #150, #104, ( #178 ) ) ;
#174 = DIRECTION ( 'NONE',  ( 0.0000000000000000000, 1.000000000000000000, 0.0000000000000000000 ) ) ;
#175 = DIRECTION ( 'NONE',  ( -3.491481338843133355E-15, 1.224646799147353207E-16, -1.000000000000000000 ) ) ;
#176 = FACE_OUTER_BOUND ( 'NONE', #105, .T. ) ;
#177 = CALENDAR_DATE ( 2021, 8, 10 ) ;
#178 = SECURITY_CLASSIFICATION ( '', '', #62 ) ;
#179 = ADVANCED_FACE ( 'NONE', ( #161, #176 ), #75, .T. ) ;
#180 = PERSON_AND_ORGANIZATION_ROLE ( 'creator' ) ;
#181 = DIRECTION ( 'NONE',  ( -3.491481338843133355E-15, 1.224646799147353207E-16, -1.000000000000000000 ) ) ;
#182 = DIRECTION ( 'NONE',  ( -3.491481338843133355E-15, 1.224646799147353207E-16, -1.000000000000000000 ) ) ;
#183 = ORIENTED_EDGE ( 'NONE', *, *, #108, .F. ) ;
#184 = DIRECTION ( 'NONE',  ( -3.491481338843133355E-15, 1.224646799147353207E-16, -1.000000000000000000 ) ) ;
#185 = APPROVAL_ROLE ( '' ) ;
#186 = PRODUCT_DEFINITION_FORMATION_WITH_SPECIFIED_SOURCE ( 'ANY', '', #123, .NOT_KNOWN. ) ;
#187 = CALENDAR_DATE ( 2021, 8, 10 ) ;
#188 = EDGE_CURVE ( 'NONE', #163, #163, #142, .T. ) ;
#189 = PERSON_AND_ORGANIZATION_ROLE ( 'classification_officer' ) ;
#190 = DIRECTION ( 'NONE',  ( -4.275831445896958607E-31, -1.000000000000000000, -1.224646799147353207E-16 ) ) ;
#191 = DIRECTION ( 'NONE',  ( -3.491481338843133355E-15, 1.224646799147353207E-16, -1.000000000000000000 ) ) ;
#192 = APPROVAL ( #130, 'UNSPECIFIED' ) ;
#193 = PERSON_AND_ORGANIZATION ( #28, #17 ) ;
#194 =( LENGTH_UNIT ( ) NAMED_UNIT ( * ) SI_UNIT ( .MILLI., .METRE. ) );
#195 = DIRECTION ( 'NONE',  ( 4.275831445896958607E-31, 1.000000000000000000, 1.224646799147353207E-16 ) ) ;
#196 = ADVANCED_FACE ( 'NONE', ( #35 ), #71, .F. ) ;
#197 = CARTESIAN_POINT ( 'NONE',  ( 3.272352801018750813E-14, -1.147786854497788699E-15, 9.372390923627307302 ) ) ;
#198 = SHAPE_DEFINITION_REPRESENTATION ( #84, #217 ) ;
#199 = LOCAL_TIME ( 7, 14, 59.00000000000000000, #222 ) ;
#200 = PERSON_AND_ORGANIZATION ( #28, #17 ) ;
#201 = EDGE_CURVE ( 'NONE', #214, #214, #50, .T. ) ;
#202 = PERSON_AND_ORGANIZATION_ROLE ( 'creator' ) ;
#203 = ORIENTED_EDGE ( 'NONE', *, *, #216, .F. ) ;
#204 = DESIGN_CONTEXT ( 'detailed design', #124, 'design' ) ;
#205 = EDGE_LOOP ( 'NONE', ( #183 ) ) ;
#206 = DIRECTION ( 'NONE',  ( 4.275831445896959482E-31, 1.000000000000000000, 1.224646799147353207E-16 ) ) ;
#207 = CC_DESIGN_PERSON_AND_ORGANIZATION_ASSIGNMENT ( #79, #202, ( #186 ) ) ;
#208 = AXIS2_PLACEMENT_3D ( 'NONE', #118, #171, #206 ) ;
#209 = DIRECTION ( 'NONE',  ( -3.491481338843133355E-15, 1.224646799147353207E-16, -1.000000000000000000 ) ) ;
#210 = AXIS2_PLACEMENT_3D ( 'NONE', #57, #181, #94 ) ;
#211 = APPLICATION_PROTOCOL_DEFINITION ( 'international standard', 'config_control_design', 1994, #70 ) ;
#212 = CARTESIAN_POINT ( 'NONE',  ( 1.047444401652940007E-13, 0.5499999999999963807, 30.00000000000000000 ) ) ;
#213 = AXIS2_PLACEMENT_3D ( 'NONE', #162, #5, #76 ) ;
#214 = VERTEX_POINT ( 'NONE', #212 ) ;
#215 = DIRECTION ( 'NONE',  ( 0.0000000000000000000, 1.000000000000000000, 0.0000000000000000000 ) ) ;
#216 = EDGE_CURVE ( 'NONE', #78, #78, #34, .T. ) ;
#217 = ADVANCED_BREP_SHAPE_REPRESENTATION ( '55359', ( #49, #48, #213 ), #30 ) ;
#218 = PERSON_AND_ORGANIZATION ( #28, #17 ) ;
#219 = PRODUCT_DEFINITION ( 'UNKNOWN', '', #186, #204 ) ;
#220 = CALENDAR_DATE ( 2021, 8, 10 ) ;
#221 = FACE_OUTER_BOUND ( 'NONE', #14, .T. ) ;
#222 = COORDINATED_UNIVERSAL_TIME_OFFSET ( 1, 0, .AHEAD. ) ;
#223 = APPROVAL_PERSON_ORGANIZATION ( #218, #37, #67 ) ;
ENDSEC;
END-ISO-10303-21;
