ISO-10303-21;
HEADER;
FILE_DESCRIPTION (( 'STEP AP203' ),
    '1' );
FILE_NAME ('55358.step',
    '2021-10-08T05:14:58',
    ( '' ),
    ( '' ),
    'SwSTEP 2.0',
    'SolidWorks 2019',
    '' );
FILE_SCHEMA (( 'CONFIG_CONTROL_DESIGN' ));
ENDSEC;

DATA;
#1 = DIRECTION ( 'NONE',  ( 0.0000000000000000000, 1.000000000000000000, 0.0000000000000000000 ) ) ;
#2 = FACE_OUTER_BOUND ( 'NONE', #189, .T. ) ;
#3 = AXIS2_PLACEMENT_3D ( 'NONE', #72, #190, #139 ) ;
#4 = DIRECTION ( 'NONE',  ( 0.0000000000000000000, 1.000000000000000000, 0.0000000000000000000 ) ) ;
#5 = CIRCLE ( 'NONE', #173, 0.7499999999999998890 ) ;
#6 = DIRECTION ( 'NONE',  ( 3.491481338843133355E-15, -1.224646799147353207E-16, 1.000000000000000000 ) ) ;
#7 = ORIENTED_EDGE ( 'NONE', *, *, #91, .F. ) ;
#8 = APPROVAL_STATUS ( 'not_yet_approved' ) ;
#9 = CARTESIAN_POINT ( 'NONE',  ( 1.040461438975253740E-13, 0.7499999999999962252, 29.80000000000000071 ) ) ;
#10 = EDGE_CURVE ( 'NONE', #216, #216, #19, .T. ) ;
#11 = CARTESIAN_POINT ( 'NONE',  ( 3.142333204958820020E-14, 0.5299999999999992495, 9.000000000000000000 ) ) ;
#12 = COORDINATED_UNIVERSAL_TIME_OFFSET ( 1, 0, .AHEAD. ) ;
#13 = AXIS2_PLACEMENT_3D ( 'NONE', #41, #56, #4 ) ;
#14 = AXIS2_PLACEMENT_3D ( 'NONE', #214, #61, #111 ) ;
#15 = LOCAL_TIME ( 7, 14, 58.00000000000000000, #66 ) ;
#16 = COORDINATED_UNIVERSAL_TIME_OFFSET ( 1, 0, .AHEAD. ) ;
#17 = EDGE_LOOP ( 'NONE', ( #136 ) ) ;
#18 = ORIENTED_EDGE ( 'NONE', *, *, #10, .T. ) ;
#19 = CIRCLE ( 'NONE', #81, 0.5300000000000003597 ) ;
#20 = FACE_BOUND ( 'NONE', #92, .T. ) ;
#21 = APPROVAL ( #8, 'UNSPECIFIED' ) ;
#22 = DIRECTION ( 'NONE',  ( -4.275831445896958607E-31, -1.000000000000000000, -1.224646799147353207E-16 ) ) ;
#23 = EDGE_CURVE ( 'NONE', #218, #218, #52, .T. ) ;
#24 = APPLICATION_CONTEXT ( 'configuration controlled 3d designs of mechanical parts and assemblies' ) ;
#25 = FACE_OUTER_BOUND ( 'NONE', #17, .T. ) ;
#26 = CONICAL_SURFACE ( 'NONE', #99, 0.5500000000000000444, 0.7853981633974510546 ) ;
#27 = AXIS2_PLACEMENT_3D ( 'NONE', #73, #59, #112 ) ;
#28 = CARTESIAN_POINT ( 'NONE',  ( 3.142333204958820020E-14, -1.102182119232617714E-15, 9.000000000000000000 ) ) ;
#29 = PERSON_AND_ORGANIZATION ( #178, #171 ) ;
#30 = VERTEX_POINT ( 'NONE', #65 ) ;
#31 = PRODUCT ( '55358', '55358', '', ( #84 ) ) ;
#32 = PERSON_AND_ORGANIZATION ( #178, #171 ) ;
#33 = ADVANCED_BREP_SHAPE_REPRESENTATION ( '55358', ( #58, #54, #142 ), #55 ) ;
#34 = PERSON_AND_ORGANIZATION_ROLE ( 'classification_officer' ) ;
#35 = APPROVAL_DATE_TIME ( #124, #116 ) ;
#36 = CC_DESIGN_APPROVAL ( #179, ( #68 ) ) ;
#37 = FACE_OUTER_BOUND ( 'NONE', #75, .T. ) ;
#38 = DIRECTION ( 'NONE',  ( -3.491481338843133355E-15, 1.224646799147353207E-16, -1.000000000000000000 ) ) ;
#39 = CARTESIAN_POINT ( 'NONE',  ( 3.142333204958820020E-14, 3.974363424053909250E-33, 9.000000000000000000 ) ) ;
#40 = ADVANCED_FACE ( 'NONE', ( #213, #42 ), #169, .T. ) ;
#41 = CARTESIAN_POINT ( 'NONE',  ( 3.275376512555028317E-14, -1.148847429736513941E-15, 9.381051177665153062 ) ) ;
#42 = FACE_OUTER_BOUND ( 'NONE', #93, .T. ) ;
#43 = PERSON_AND_ORGANIZATION ( #178, #171 ) ;
#44 = VERTEX_POINT ( 'NONE', #9 ) ;
#45 = CALENDAR_DATE ( 2021, 8, 10 ) ;
#46 = CC_DESIGN_PERSON_AND_ORGANIZATION_ASSIGNMENT ( #32, #164, ( #31 ) ) ;
#47 = CC_DESIGN_APPROVAL ( #21, ( #182 ) ) ;
#48 = APPROVAL_ROLE ( '' ) ;
#49 = AXIS2_PLACEMENT_3D ( 'NONE', #192, #160, #77 ) ;
#50 = ADVANCED_FACE ( 'NONE', ( #129 ), #107, .F. ) ;
#51 = ORIENTED_EDGE ( 'NONE', *, *, #10, .F. ) ;
#52 = CIRCLE ( 'NONE', #94, 0.5500000000000000444 ) ;
#53 = ORIENTED_EDGE ( 'NONE', *, *, #23, .T. ) ;
#54 = MANIFOLD_SOLID_BREP ( 'Corps-Déplacer/Copier1[2]', #120 ) ;
#55 =( GEOMETRIC_REPRESENTATION_CONTEXT ( 3 ) GLOBAL_UNCERTAINTY_ASSIGNED_CONTEXT ( ( #87 ) ) GLOBAL_UNIT_ASSIGNED_CONTEXT ( ( #220, #79, #175 ) ) REPRESENTATION_CONTEXT ( 'NONE', 'WORKASPACE' ) );
#56 = DIRECTION ( 'NONE',  ( -3.491481338843133355E-15, 1.224646799147353207E-16, -1.000000000000000000 ) ) ;
#57 = DIRECTION ( 'NONE',  ( 0.0000000000000000000, 1.000000000000000000, 0.0000000000000000000 ) ) ;
#58 = MANIFOLD_SOLID_BREP ( 'Corps-Déplacer/Copier1[1]', #108 ) ;
#59 = DIRECTION ( 'NONE',  ( 3.491481338843133355E-15, -1.224646799147353207E-16, 1.000000000000000000 ) ) ;
#60 = APPROVAL_PERSON_ORGANIZATION ( #29, #21, #150 ) ;
#61 = DIRECTION ( 'NONE',  ( -3.491481338843133355E-15, 1.224646799147353207E-16, -1.000000000000000000 ) ) ;
#62 = CARTESIAN_POINT ( 'NONE',  ( 1.047444401652940007E-13, -3.673940397442059178E-15, 30.00000000000000000 ) ) ;
#63 = SECURITY_CLASSIFICATION_LEVEL ( 'unclassified' ) ;
#64 = EDGE_LOOP ( 'NONE', ( #187 ) ) ;
#65 = CARTESIAN_POINT ( 'NONE',  ( 3.275376512555028317E-14, 0.7499999999999963363, 9.381051177665153062 ) ) ;
#66 = COORDINATED_UNIVERSAL_TIME_OFFSET ( 1, 0, .AHEAD. ) ;
#67 = CALENDAR_DATE ( 2021, 8, 10 ) ;
#68 = PRODUCT_DEFINITION_FORMATION_WITH_SPECIFIED_SOURCE ( 'ANY', '', #31, .NOT_KNOWN. ) ;
#69 = DATE_AND_TIME ( #222, #162 ) ;
#70 = AXIS2_PLACEMENT_3D ( 'NONE', #39, #109, #22 ) ;
#71 = CC_DESIGN_SECURITY_CLASSIFICATION ( #208, ( #68 ) ) ;
#72 = CARTESIAN_POINT ( 'NONE',  ( 0.0000000000000000000, 0.0000000000000000000, 0.0000000000000000000 ) ) ;
#73 = CARTESIAN_POINT ( 'NONE',  ( 3.275376512555028317E-14, -1.148847429736513941E-15, 9.381051177665153062 ) ) ;
#74 = PLANE ( 'NONE',  #158 ) ;
#75 = EDGE_LOOP ( 'NONE', ( #153 ) ) ;
#76 = PLANE ( 'NONE',  #70 ) ;
#77 = DIRECTION ( 'NONE',  ( 3.633830083749509137E-31, 1.000000000000000000, 1.022832238193874226E-16 ) ) ;
#78 = DATE_AND_TIME ( #45, #15 ) ;
#79 =( NAMED_UNIT ( * ) PLANE_ANGLE_UNIT ( ) SI_UNIT ( $, .RADIAN. ) );
#80 = APPROVAL_DATE_TIME ( #69, #21 ) ;
#81 = AXIS2_PLACEMENT_3D ( 'NONE', #28, #212, #140 ) ;
#82 = DATE_AND_TIME ( #67, #209 ) ;
#83 = CC_DESIGN_PERSON_AND_ORGANIZATION_ASSIGNMENT ( #43, #34, ( #208 ) ) ;
#84 = MECHANICAL_CONTEXT ( 'NONE', #24, 'mechanical' ) ;
#85 = LOCAL_TIME ( 7, 14, 58.00000000000000000, #103 ) ;
#86 = PRODUCT_DEFINITION_SHAPE ( 'NONE', 'NONE',  #182 ) ;
#87 = UNCERTAINTY_MEASURE_WITH_UNIT (LENGTH_MEASURE( 1.000000000000000082E-05 ), #220, 'distance_accuracy_value', 'NONE');
#88 = CC_DESIGN_DATE_AND_TIME_ASSIGNMENT ( #82, #163, ( #182 ) ) ;
#89 = ORIENTED_EDGE ( 'NONE', *, *, #161, .T. ) ;
#90 = CALENDAR_DATE ( 2021, 8, 10 ) ;
#91 = EDGE_CURVE ( 'NONE', #146, #146, #188, .T. ) ;
#92 = EDGE_LOOP ( 'NONE', ( #53 ) ) ;
#93 = EDGE_LOOP ( 'NONE', ( #89 ) ) ;
#94 = AXIS2_PLACEMENT_3D ( 'NONE', #62, #38, #130 ) ;
#95 = EDGE_LOOP ( 'NONE', ( #199 ) ) ;
#96 = FACE_OUTER_BOUND ( 'NONE', #148, .T. ) ;
#97 = DIRECTION ( 'NONE',  ( 3.491481338843133355E-15, -1.224646799147353207E-16, 1.000000000000000000 ) ) ;
#98 = DIRECTION ( 'NONE',  ( 4.275831445896958607E-31, 1.000000000000000000, 1.224646799147353207E-16 ) ) ;
#99 = AXIS2_PLACEMENT_3D ( 'NONE', #167, #210, #1 ) ;
#100 = PERSON_AND_ORGANIZATION ( #178, #171 ) ;
#101 = CARTESIAN_POINT ( 'NONE',  ( 0.0000000000000000000, 0.0000000000000000000, 0.0000000000000000000 ) ) ;
#102 = APPROVAL_STATUS ( 'not_yet_approved' ) ;
#103 = COORDINATED_UNIVERSAL_TIME_OFFSET ( 1, 0, .AHEAD. ) ;
#104 = APPROVAL_PERSON_ORGANIZATION ( #119, #116, #165 ) ;
#105 = EDGE_LOOP ( 'NONE', ( #51 ) ) ;
#106 = CARTESIAN_POINT ( 'NONE',  ( 1.047444401652940007E-13, 4.124339402320052999E-33, 30.00000000000000000 ) ) ;
#107 = PLANE ( 'NONE',  #147 ) ;
#108 = CLOSED_SHELL ( 'NONE', ( #50, #40, #125, #156, #181 ) ) ;
#109 = DIRECTION ( 'NONE',  ( 3.491481338843133355E-15, -1.224646799147353207E-16, 1.000000000000000000 ) ) ;
#110 = CC_DESIGN_PERSON_AND_ORGANIZATION_ASSIGNMENT ( #117, #177, ( #68 ) ) ;
#111 = DIRECTION ( 'NONE',  ( 0.0000000000000000000, 1.000000000000000000, 0.0000000000000000000 ) ) ;
#112 = DIRECTION ( 'NONE',  ( 0.0000000000000000000, -1.000000000000000000, 0.0000000000000000000 ) ) ;
#113 = CC_DESIGN_DATE_AND_TIME_ASSIGNMENT ( #205, #137, ( #208 ) ) ;
#114 = APPLICATION_PROTOCOL_DEFINITION ( 'international standard', 'config_control_design', 1994, #24 ) ;
#115 = APPLICATION_PROTOCOL_DEFINITION ( 'international standard', 'config_control_design', 1994, #211 ) ;
#116 = APPROVAL ( #102, 'UNSPECIFIED' ) ;
#117 = PERSON_AND_ORGANIZATION ( #178, #171 ) ;
#118 = COORDINATED_UNIVERSAL_TIME_OFFSET ( 1, 0, .AHEAD. ) ;
#119 = PERSON_AND_ORGANIZATION ( #178, #171 ) ;
#120 = CLOSED_SHELL ( 'NONE', ( #219, #135, #185 ) ) ;
#121 = EDGE_CURVE ( 'NONE', #44, #44, #5, .T. ) ;
#122 = EDGE_LOOP ( 'NONE', ( #7 ) ) ;
#123 = AXIS2_PLACEMENT_3D ( 'NONE', #191, #172, #143 ) ;
#124 = DATE_AND_TIME ( #90, #186 ) ;
#125 = ADVANCED_FACE ( 'NONE', ( #184, #96 ), #155, .T. ) ;
#126 = CARTESIAN_POINT ( 'NONE',  ( 3.142333204958820020E-14, 3.974363424053909250E-33, 9.000000000000000000 ) ) ;
#127 = DIRECTION ( 'NONE',  ( -4.275831445896958607E-31, -1.000000000000000000, -1.224646799147353207E-16 ) ) ;
#128 = FACE_OUTER_BOUND ( 'NONE', #203, .T. ) ;
#129 = FACE_OUTER_BOUND ( 'NONE', #202, .T. ) ;
#130 = DIRECTION ( 'NONE',  ( 0.0000000000000000000, 1.000000000000000000, 0.0000000000000000000 ) ) ;
#131 = CARTESIAN_POINT ( 'NONE',  ( 1.111883628447654042E-15, 0.5299999999999989164, 0.3184561280846098796 ) ) ;
#132 = CIRCLE ( 'NONE', #14, 0.5300000000000003597 ) ;
#133 = PERSON_AND_ORGANIZATION ( #178, #171 ) ;
#134 = PERSON_AND_ORGANIZATION_ROLE ( 'creator' ) ;
#135 = ADVANCED_FACE ( 'NONE', ( #157, #128 ), #168, .T. ) ;
#136 = ORIENTED_EDGE ( 'NONE', *, *, #91, .T. ) ;
#137 = DATE_TIME_ROLE ( 'classification_date' ) ;
#138 = CIRCLE ( 'NONE', #13, 0.7499999999999975575 ) ;
#139 = DIRECTION ( 'NONE',  ( 4.275831445896958607E-31, 1.000000000000000000, 1.224646799147352961E-16 ) ) ;
#140 = DIRECTION ( 'NONE',  ( 0.0000000000000000000, 1.000000000000000000, 0.0000000000000000000 ) ) ;
#141 = DIRECTION ( 'NONE',  ( -3.491481338843133355E-15, 1.224646799147353207E-16, -1.000000000000000000 ) ) ;
#142 = AXIS2_PLACEMENT_3D ( 'NONE', #101, #174, #194 ) ;
#143 = DIRECTION ( 'NONE',  ( 4.275831445896959482E-31, 1.000000000000000000, 1.224646799147353207E-16 ) ) ;
#144 = DIRECTION ( 'NONE',  ( -3.633830083749509137E-31, -1.000000000000000000, -1.022832238193874226E-16 ) ) ;
#145 = PERSON_AND_ORGANIZATION ( #178, #171 ) ;
#146 = VERTEX_POINT ( 'NONE', #131 ) ;
#147 = AXIS2_PLACEMENT_3D ( 'NONE', #126, #97, #127 ) ;
#148 = EDGE_LOOP ( 'NONE', ( #193 ) ) ;
#149 = CC_DESIGN_APPROVAL ( #116, ( #208 ) ) ;
#150 = APPROVAL_ROLE ( '' ) ;
#151 = AXIS2_PLACEMENT_3D ( 'NONE', #159, #6, #144 ) ;
#152 = ORIENTED_EDGE ( 'NONE', *, *, #23, .F. ) ;
#153 = ORIENTED_EDGE ( 'NONE', *, *, #121, .F. ) ;
#154 = CARTESIAN_POINT ( 'NONE',  ( 1.040461438975253740E-13, -3.649447461459112464E-15, 29.80000000000000071 ) ) ;
#155 = CYLINDRICAL_SURFACE ( 'NONE', #123, 0.7499999999999986677 ) ;
#156 = ADVANCED_FACE ( 'NONE', ( #37, #20 ), #26, .T. ) ;
#157 = FACE_OUTER_BOUND ( 'NONE', #122, .T. ) ;
#158 = AXIS2_PLACEMENT_3D ( 'NONE', #106, #141, #98 ) ;
#159 = CARTESIAN_POINT ( 'NONE',  ( 1.111883628447653845E-15, -3.899962779276769648E-17, 0.3184561280846098241 ) ) ;
#160 = DIRECTION ( 'NONE',  ( -3.491481338843133355E-15, 1.224646799147353207E-16, -1.000000000000000000 ) ) ;
#161 = EDGE_CURVE ( 'NONE', #30, #30, #138, .T. ) ;
#162 = LOCAL_TIME ( 7, 14, 58.00000000000000000, #12 ) ;
#163 = DATE_TIME_ROLE ( 'creation_date' ) ;
#164 = PERSON_AND_ORGANIZATION_ROLE ( 'design_owner' ) ;
#165 = APPROVAL_ROLE ( '' ) ;
#166 = SHAPE_DEFINITION_REPRESENTATION ( #86, #33 ) ;
#167 = CARTESIAN_POINT ( 'NONE',  ( 1.047444401652940007E-13, -3.673940397442059178E-15, 30.00000000000000000 ) ) ;
#168 = CYLINDRICAL_SURFACE ( 'NONE', #3, 0.5299999999999996936 ) ;
#169 = CONICAL_SURFACE ( 'NONE', #27, 0.7499999999999975575, 0.5235987755982925984 ) ;
#170 = FACE_OUTER_BOUND ( 'NONE', #105, .T. ) ;
#171 = ORGANIZATION ( 'UNSPECIFIED', 'UNSPECIFIED', '' ) ;
#172 = DIRECTION ( 'NONE',  ( -3.491481338843133355E-15, 1.224646799147353207E-16, -1.000000000000000000 ) ) ;
#173 = AXIS2_PLACEMENT_3D ( 'NONE', #154, #183, #57 ) ;
#174 = DIRECTION ( 'NONE',  ( 0.0000000000000000000, 0.0000000000000000000, 1.000000000000000000 ) ) ;
#175 =( NAMED_UNIT ( * ) SI_UNIT ( $, .STERADIAN. ) SOLID_ANGLE_UNIT ( ) );
#176 = CARTESIAN_POINT ( 'NONE',  ( 3.142333204958820020E-14, 0.5299999999999992495, 9.000000000000000000 ) ) ;
#177 = PERSON_AND_ORGANIZATION_ROLE ( 'creator' ) ;
#178 = PERSON ( 'UNSPECIFIED', 'UNSPECIFIED', 'UNSPECIFIED', ('UNSPECIFIED'), ('UNSPECIFIED'), ('UNSPECIFIED') ) ;
#179 = APPROVAL ( #198, 'UNSPECIFIED' ) ;
#180 = APPROVAL_PERSON_ORGANIZATION ( #133, #179, #48 ) ;
#181 = ADVANCED_FACE ( 'NONE', ( #2 ), #74, .F. ) ;
#182 = PRODUCT_DEFINITION ( 'UNKNOWN', '', #68, #204 ) ;
#183 = DIRECTION ( 'NONE',  ( -3.491481338843133355E-15, 1.224646799147353207E-16, -1.000000000000000000 ) ) ;
#184 = FACE_OUTER_BOUND ( 'NONE', #64, .T. ) ;
#185 = ADVANCED_FACE ( 'NONE', ( #170 ), #76, .T. ) ;
#186 = LOCAL_TIME ( 7, 14, 58.00000000000000000, #16 ) ;
#187 = ORIENTED_EDGE ( 'NONE', *, *, #161, .F. ) ;
#188 = CIRCLE ( 'NONE', #49, 0.5299999999999989164 ) ;
#189 = EDGE_LOOP ( 'NONE', ( #152 ) ) ;
#190 = DIRECTION ( 'NONE',  ( -3.491481338843133355E-15, 1.224646799147353207E-16, -1.000000000000000000 ) ) ;
#191 = CARTESIAN_POINT ( 'NONE',  ( 0.0000000000000000000, 0.0000000000000000000, 0.0000000000000000000 ) ) ;
#192 = CARTESIAN_POINT ( 'NONE',  ( 1.111883628447653845E-15, -3.899962779276769648E-17, 0.3184561280846098241 ) ) ;
#193 = ORIENTED_EDGE ( 'NONE', *, *, #121, .T. ) ;
#194 = DIRECTION ( 'NONE',  ( 1.000000000000000000, 0.0000000000000000000, 0.0000000000000000000 ) ) ;
#195 = VERTEX_POINT ( 'NONE', #176 ) ;
#196 = APPROVAL_DATE_TIME ( #78, #179 ) ;
#197 = CONICAL_SURFACE ( 'NONE', #151, 0.5299999999999989164, 1.029744258676649649 ) ;
#198 = APPROVAL_STATUS ( 'not_yet_approved' ) ;
#199 = ORIENTED_EDGE ( 'NONE', *, *, #201, .F. ) ;
#200 = CARTESIAN_POINT ( 'NONE',  ( 1.047444401652940007E-13, 0.5499999999999963807, 30.00000000000000000 ) ) ;
#201 = EDGE_CURVE ( 'NONE', #195, #195, #132, .T. ) ;
#202 = EDGE_LOOP ( 'NONE', ( #207 ) ) ;
#203 = EDGE_LOOP ( 'NONE', ( #18 ) ) ;
#204 = DESIGN_CONTEXT ( 'detailed design', #211, 'design' ) ;
#205 = DATE_AND_TIME ( #223, #85 ) ;
#206 = CC_DESIGN_PERSON_AND_ORGANIZATION_ASSIGNMENT ( #100, #134, ( #182 ) ) ;
#207 = ORIENTED_EDGE ( 'NONE', *, *, #201, .T. ) ;
#208 = SECURITY_CLASSIFICATION ( '', '', #63 ) ;
#209 = LOCAL_TIME ( 7, 14, 58.00000000000000000, #118 ) ;
#210 = DIRECTION ( 'NONE',  ( -3.491481338843133355E-15, 1.224646799147353207E-16, -1.000000000000000000 ) ) ;
#211 = APPLICATION_CONTEXT ( 'configuration controlled 3d designs of mechanical parts and assemblies' ) ;
#212 = DIRECTION ( 'NONE',  ( -3.491481338843133355E-15, 1.224646799147353207E-16, -1.000000000000000000 ) ) ;
#213 = FACE_BOUND ( 'NONE', #95, .T. ) ;
#214 = CARTESIAN_POINT ( 'NONE',  ( 3.142333204958820020E-14, -1.102182119232617714E-15, 9.000000000000000000 ) ) ;
#215 = CC_DESIGN_PERSON_AND_ORGANIZATION_ASSIGNMENT ( #145, #217, ( #68 ) ) ;
#216 = VERTEX_POINT ( 'NONE', #11 ) ;
#217 = PERSON_AND_ORGANIZATION_ROLE ( 'design_supplier' ) ;
#218 = VERTEX_POINT ( 'NONE', #200 ) ;
#219 = ADVANCED_FACE ( 'NONE', ( #25 ), #197, .T. ) ;
#220 =( LENGTH_UNIT ( ) NAMED_UNIT ( * ) SI_UNIT ( .MILLI., .METRE. ) );
#221 = PRODUCT_RELATED_PRODUCT_CATEGORY ( 'detail', '', ( #31 ) ) ;
#222 = CALENDAR_DATE ( 2021, 8, 10 ) ;
#223 = CALENDAR_DATE ( 2021, 8, 10 ) ;
ENDSEC;
END-ISO-10303-21;
