ISO-10303-21;
HEADER;
FILE_DESCRIPTION (( 'STEP AP203' ),
    '1' );
FILE_NAME ('55357.step',
    '2021-10-08T05:14:58',
    ( '' ),
    ( '' ),
    'SwSTEP 2.0',
    'SolidWorks 2019',
    '' );
FILE_SCHEMA (( 'CONFIG_CONTROL_DESIGN' ));
ENDSEC;

DATA;
#1 = LOCAL_TIME ( 7, 14, 58.00000000000000000, #64 ) ;
#2 = ADVANCED_FACE ( 'NONE', ( #134 ), #31, .F. ) ;
#3 = APPROVAL_PERSON_ORGANIZATION ( #82, #30, #178 ) ;
#4 = DIRECTION ( 'NONE',  ( 4.275831445896958607E-31, 1.000000000000000000, 1.224646799147353207E-16 ) ) ;
#5 = PERSON_AND_ORGANIZATION ( #214, #46 ) ;
#6 = FACE_OUTER_BOUND ( 'NONE', #49, .T. ) ;
#7 = ORIENTED_EDGE ( 'NONE', *, *, #161, .F. ) ;
#8 = ORIENTED_EDGE ( 'NONE', *, *, #199, .T. ) ;
#9 = CC_DESIGN_PERSON_AND_ORGANIZATION_ASSIGNMENT ( #45, #86, ( #58 ) ) ;
#10 = EDGE_CURVE ( 'NONE', #87, #87, #34, .T. ) ;
#11 = CONICAL_SURFACE ( 'NONE', #164, 0.5500000000000000444, 0.7853981633974510546 ) ;
#12 = DIRECTION ( 'NONE',  ( -4.275831445896958607E-31, -1.000000000000000000, -1.224646799147353207E-16 ) ) ;
#13 = DATE_AND_TIME ( #201, #101 ) ;
#14 = PERSON_AND_ORGANIZATION_ROLE ( 'classification_officer' ) ;
#15 = DATE_AND_TIME ( #35, #22 ) ;
#16 = DATE_TIME_ROLE ( 'creation_date' ) ;
#17 = APPROVAL_PERSON_ORGANIZATION ( #220, #40, #182 ) ;
#18 = APPROVAL_ROLE ( '' ) ;
#19 = DIRECTION ( 'NONE',  ( 4.275831445896959482E-31, 1.000000000000000000, 1.224646799147353207E-16 ) ) ;
#20 = APPROVAL ( #138, 'UNSPECIFIED' ) ;
#21 = EDGE_LOOP ( 'NONE', ( #80 ) ) ;
#22 = LOCAL_TIME ( 7, 14, 58.00000000000000000, #194 ) ;
#23 = ORIENTED_EDGE ( 'NONE', *, *, #98, .T. ) ;
#24 = EDGE_LOOP ( 'NONE', ( #8 ) ) ;
#25 = PERSON_AND_ORGANIZATION ( #214, #46 ) ;
#26 = CIRCLE ( 'NONE', #79, 0.7499999999999975575 ) ;
#27 = DATE_AND_TIME ( #67, #151 ) ;
#28 = ADVANCED_FACE ( 'NONE', ( #99, #129 ), #174, .T. ) ;
#29 = CALENDAR_DATE ( 2021, 8, 10 ) ;
#30 = APPROVAL ( #106, 'UNSPECIFIED' ) ;
#31 = PLANE ( 'NONE',  #206 ) ;
#32 = DIRECTION ( 'NONE',  ( 0.0000000000000000000, -1.000000000000000000, 0.0000000000000000000 ) ) ;
#33 = EDGE_LOOP ( 'NONE', ( #92 ) ) ;
#34 = CIRCLE ( 'NONE', #75, 0.5249999999999990230 ) ;
#35 = CALENDAR_DATE ( 2021, 8, 10 ) ;
#36 = DIRECTION ( 'NONE',  ( -3.491481338843133355E-15, 1.224646799147353207E-16, -1.000000000000000000 ) ) ;
#37 = DIRECTION ( 'NONE',  ( 0.0000000000000000000, 1.000000000000000000, 0.0000000000000000000 ) ) ;
#38 = CARTESIAN_POINT ( 'NONE',  ( 0.0000000000000000000, 0.0000000000000000000, 0.0000000000000000000 ) ) ;
#39 = DATE_TIME_ROLE ( 'classification_date' ) ;
#40 = APPROVAL ( #124, 'UNSPECIFIED' ) ;
#41 = AXIS2_PLACEMENT_3D ( 'NONE', #188, #118, #32 ) ;
#42 =( LENGTH_UNIT ( ) NAMED_UNIT ( * ) SI_UNIT ( .MILLI., .METRE. ) );
#43 = CARTESIAN_POINT ( 'NONE',  ( 3.142333204958820020E-14, -1.102182119232617714E-15, 9.000000000000000000 ) ) ;
#44 = CARTESIAN_POINT ( 'NONE',  ( 1.101394160254751562E-15, -3.863170677585479607E-17, 0.3154518249894720516 ) ) ;
#45 = PERSON_AND_ORGANIZATION ( #214, #46 ) ;
#46 = ORGANIZATION ( 'UNSPECIFIED', 'UNSPECIFIED', '' ) ;
#47 = DIRECTION ( 'NONE',  ( 0.0000000000000000000, 1.000000000000000000, 0.0000000000000000000 ) ) ;
#48 = DIRECTION ( 'NONE',  ( -3.491481338843133355E-15, 1.224646799147353207E-16, -1.000000000000000000 ) ) ;
#49 = EDGE_LOOP ( 'NONE', ( #155 ) ) ;
#50 = AXIS2_PLACEMENT_3D ( 'NONE', #38, #70, #122 ) ;
#51 = EDGE_CURVE ( 'NONE', #84, #84, #150, .T. ) ;
#52 = DIRECTION ( 'NONE',  ( -3.668437989309027345E-31, -1.000000000000000000, -1.032573497605244196E-16 ) ) ;
#53 = APPROVAL_DATE_TIME ( #57, #40 ) ;
#54 = CIRCLE ( 'NONE', #184, 0.7499999999999998890 ) ;
#55 =( NAMED_UNIT ( * ) SI_UNIT ( $, .STERADIAN. ) SOLID_ANGLE_UNIT ( ) );
#56 = DIRECTION ( 'NONE',  ( 3.491481338843133355E-15, -1.224646799147353207E-16, 1.000000000000000000 ) ) ;
#57 = DATE_AND_TIME ( #29, #131 ) ;
#58 = PRODUCT_DEFINITION_FORMATION_WITH_SPECIFIED_SOURCE ( 'ANY', '', #169, .NOT_KNOWN. ) ;
#59 = ADVANCED_FACE ( 'NONE', ( #217 ), #105, .T. ) ;
#60 = PERSON_AND_ORGANIZATION ( #214, #46 ) ;
#61 = DIRECTION ( 'NONE',  ( -3.491481338843133355E-15, 1.224646799147353207E-16, -1.000000000000000000 ) ) ;
#62 = DIRECTION ( 'NONE',  ( 3.491481338843133355E-15, -1.224646799147353207E-16, 1.000000000000000000 ) ) ;
#63 = EDGE_LOOP ( 'NONE', ( #153 ) ) ;
#64 = COORDINATED_UNIVERSAL_TIME_OFFSET ( 1, 0, .AHEAD. ) ;
#65 = CARTESIAN_POINT ( 'NONE',  ( 0.0000000000000000000, 0.0000000000000000000, 0.0000000000000000000 ) ) ;
#66 = AXIS2_PLACEMENT_3D ( 'NONE', #68, #56, #143 ) ;
#67 = CALENDAR_DATE ( 2021, 8, 10 ) ;
#68 = CARTESIAN_POINT ( 'NONE',  ( 3.142333204958820020E-14, 3.936869429487360483E-33, 9.000000000000000000 ) ) ;
#69 = AXIS2_PLACEMENT_3D ( 'NONE', #43, #160, #112 ) ;
#70 = DIRECTION ( 'NONE',  ( -3.491481338843133355E-15, 1.224646799147353207E-16, -1.000000000000000000 ) ) ;
#71 = PERSON_AND_ORGANIZATION ( #214, #46 ) ;
#72 = CC_DESIGN_DATE_AND_TIME_ASSIGNMENT ( #141, #16, ( #108 ) ) ;
#73 = DIRECTION ( 'NONE',  ( 1.000000000000000000, 0.0000000000000000000, 0.0000000000000000000 ) ) ;
#74 = FACE_OUTER_BOUND ( 'NONE', #117, .T. ) ;
#75 = AXIS2_PLACEMENT_3D ( 'NONE', #210, #48, #91 ) ;
#76 = ADVANCED_FACE ( 'NONE', ( #219 ), #146, .T. ) ;
#77 = CARTESIAN_POINT ( 'NONE',  ( 3.142333204958820020E-14, -1.102182119232617714E-15, 9.000000000000000000 ) ) ;
#78 = ORIENTED_EDGE ( 'NONE', *, *, #114, .T. ) ;
#79 = AXIS2_PLACEMENT_3D ( 'NONE', #94, #205, #37 ) ;
#80 = ORIENTED_EDGE ( 'NONE', *, *, #51, .F. ) ;
#81 = ORIENTED_EDGE ( 'NONE', *, *, #10, .T. ) ;
#82 = PERSON_AND_ORGANIZATION ( #214, #46 ) ;
#83 = ADVANCED_FACE ( 'NONE', ( #109, #85 ), #200, .T. ) ;
#84 = VERTEX_POINT ( 'NONE', #145 ) ;
#85 = FACE_OUTER_BOUND ( 'NONE', #24, .T. ) ;
#86 = PERSON_AND_ORGANIZATION_ROLE ( 'design_supplier' ) ;
#87 = VERTEX_POINT ( 'NONE', #177 ) ;
#88 = AXIS2_PLACEMENT_3D ( 'NONE', #166, #62, #12 ) ;
#89 = DIRECTION ( 'NONE',  ( -3.491481338843133355E-15, 1.224646799147353207E-16, -1.000000000000000000 ) ) ;
#90 = APPLICATION_CONTEXT ( 'configuration controlled 3d designs of mechanical parts and assemblies' ) ;
#91 = DIRECTION ( 'NONE',  ( 3.668437989309027345E-31, 1.000000000000000000, 1.032573497605244196E-16 ) ) ;
#92 = ORIENTED_EDGE ( 'NONE', *, *, #51, .T. ) ;
#93 = CC_DESIGN_SECURITY_CLASSIFICATION ( #121, ( #58 ) ) ;
#94 = CARTESIAN_POINT ( 'NONE',  ( 3.278400224091305821E-14, -1.149908004975238788E-15, 9.389711431702998823 ) ) ;
#95 = ORIENTED_EDGE ( 'NONE', *, *, #199, .F. ) ;
#96 = CC_DESIGN_PERSON_AND_ORGANIZATION_ASSIGNMENT ( #71, #120, ( #58 ) ) ;
#97 = FACE_OUTER_BOUND ( 'NONE', #33, .T. ) ;
#98 = EDGE_CURVE ( 'NONE', #126, #126, #192, .T. ) ;
#99 = FACE_OUTER_BOUND ( 'NONE', #171, .T. ) ;
#100 = MANIFOLD_SOLID_BREP ( 'Corps-Déplacer/Copier1[2]', #179 ) ;
#101 = LOCAL_TIME ( 7, 14, 58.00000000000000000, #203 ) ;
#102 = DIRECTION ( 'NONE',  ( -3.491481338843133355E-15, 1.224646799147353207E-16, -1.000000000000000000 ) ) ;
#103 = APPROVAL_DATE_TIME ( #15, #30 ) ;
#104 = VERTEX_POINT ( 'NONE', #204 ) ;
#105 = PLANE ( 'NONE',  #66 ) ;
#106 = APPROVAL_STATUS ( 'not_yet_approved' ) ;
#107 = AXIS2_PLACEMENT_3D ( 'NONE', #44, #123, #52 ) ;
#108 = PRODUCT_DEFINITION ( 'UNKNOWN', '', #58, #144 ) ;
#109 = FACE_OUTER_BOUND ( 'NONE', #132, .T. ) ;
#110 = APPROVAL_DATE_TIME ( #13, #20 ) ;
#111 = CARTESIAN_POINT ( 'NONE',  ( 1.047444401652940007E-13, 0.5499999999999963807, 30.00000000000000000 ) ) ;
#112 = DIRECTION ( 'NONE',  ( 0.0000000000000000000, 1.000000000000000000, 0.0000000000000000000 ) ) ;
#113 = DIRECTION ( 'NONE',  ( 0.0000000000000000000, 1.000000000000000000, 0.0000000000000000000 ) ) ;
#114 = EDGE_CURVE ( 'NONE', #158, #158, #54, .T. ) ;
#115 = AXIS2_PLACEMENT_3D ( 'NONE', #193, #208, #19 ) ;
#116 = FACE_BOUND ( 'NONE', #21, .T. ) ;
#117 = EDGE_LOOP ( 'NONE', ( #168 ) ) ;
#118 = DIRECTION ( 'NONE',  ( 3.491481338843133355E-15, -1.224646799147353207E-16, 1.000000000000000000 ) ) ;
#119 = EDGE_LOOP ( 'NONE', ( #81 ) ) ;
#120 = PERSON_AND_ORGANIZATION_ROLE ( 'creator' ) ;
#121 = SECURITY_CLASSIFICATION ( '', '', #223 ) ;
#122 = DIRECTION ( 'NONE',  ( 4.275831445896958607E-31, 1.000000000000000000, 1.224646799147353207E-16 ) ) ;
#123 = DIRECTION ( 'NONE',  ( 3.491481338843133355E-15, -1.224646799147353207E-16, 1.000000000000000000 ) ) ;
#124 = APPROVAL_STATUS ( 'not_yet_approved' ) ;
#125 = COORDINATED_UNIVERSAL_TIME_OFFSET ( 1, 0, .AHEAD. ) ;
#126 = VERTEX_POINT ( 'NONE', #111 ) ;
#127 = ADVANCED_FACE ( 'NONE', ( #74, #207 ), #11, .T. ) ;
#128 = CC_DESIGN_APPROVAL ( #30, ( #121 ) ) ;
#129 = FACE_OUTER_BOUND ( 'NONE', #172, .T. ) ;
#130 = APPLICATION_PROTOCOL_DEFINITION ( 'international standard', 'config_control_design', 1994, #90 ) ;
#131 = LOCAL_TIME ( 7, 14, 58.00000000000000000, #125 ) ;
#132 = EDGE_LOOP ( 'NONE', ( #211 ) ) ;
#133 = ADVANCED_BREP_SHAPE_REPRESENTATION ( '55357', ( #185, #100, #221 ), #137 ) ;
#134 = FACE_OUTER_BOUND ( 'NONE', #63, .T. ) ;
#135 = ADVANCED_FACE ( 'NONE', ( #97 ), #167, .F. ) ;
#136 = CARTESIAN_POINT ( 'NONE',  ( 1.047444401652940007E-13, 4.124339402320052999E-33, 30.00000000000000000 ) ) ;
#137 =( GEOMETRIC_REPRESENTATION_CONTEXT ( 3 ) GLOBAL_UNCERTAINTY_ASSIGNED_CONTEXT ( ( #180 ) ) GLOBAL_UNIT_ASSIGNED_CONTEXT ( ( #42, #149, #55 ) ) REPRESENTATION_CONTEXT ( 'NONE', 'WORKASPACE' ) );
#138 = APPROVAL_STATUS ( 'not_yet_approved' ) ;
#139 = VERTEX_POINT ( 'NONE', #215 ) ;
#140 = CARTESIAN_POINT ( 'NONE',  ( 1.040461438975253740E-13, -3.649447461459112464E-15, 29.80000000000000071 ) ) ;
#141 = DATE_AND_TIME ( #218, #1 ) ;
#142 = CIRCLE ( 'NONE', #69, 0.5250000000000000222 ) ;
#143 = DIRECTION ( 'NONE',  ( -4.275831445896958607E-31, -1.000000000000000000, -1.224646799147353207E-16 ) ) ;
#144 = DESIGN_CONTEXT ( 'detailed design', #181, 'design' ) ;
#145 = CARTESIAN_POINT ( 'NONE',  ( 3.142333204958820020E-14, 0.5249999999999990230, 9.000000000000000000 ) ) ;
#146 = CONICAL_SURFACE ( 'NONE', #107, 0.5249999999999990230, 1.029744258676649649 ) ;
#147 = MECHANICAL_CONTEXT ( 'NONE', #90, 'mechanical' ) ;
#148 = PERSON_AND_ORGANIZATION ( #214, #46 ) ;
#149 =( NAMED_UNIT ( * ) PLANE_ANGLE_UNIT ( ) SI_UNIT ( $, .RADIAN. ) );
#150 = CIRCLE ( 'NONE', #173, 0.5250000000000000222 ) ;
#151 = LOCAL_TIME ( 7, 14, 58.00000000000000000, #162 ) ;
#152 = DIRECTION ( 'NONE',  ( -3.491481338843133355E-15, 1.224646799147353207E-16, -1.000000000000000000 ) ) ;
#153 = ORIENTED_EDGE ( 'NONE', *, *, #98, .F. ) ;
#154 = ADVANCED_FACE ( 'NONE', ( #116, #6 ), #156, .T. ) ;
#155 = ORIENTED_EDGE ( 'NONE', *, *, #161, .T. ) ;
#156 = CONICAL_SURFACE ( 'NONE', #41, 0.7499999999999975575, 0.5235987755982922653 ) ;
#157 = CARTESIAN_POINT ( 'NONE',  ( 1.040461438975253740E-13, 0.7499999999999962252, 29.80000000000000071 ) ) ;
#158 = VERTEX_POINT ( 'NONE', #157 ) ;
#159 = DIRECTION ( 'NONE',  ( 0.0000000000000000000, 1.000000000000000000, 0.0000000000000000000 ) ) ;
#160 = DIRECTION ( 'NONE',  ( -3.491481338843133355E-15, 1.224646799147353207E-16, -1.000000000000000000 ) ) ;
#161 = EDGE_CURVE ( 'NONE', #139, #139, #26, .T. ) ;
#162 = COORDINATED_UNIVERSAL_TIME_OFFSET ( 1, 0, .AHEAD. ) ;
#163 = CC_DESIGN_APPROVAL ( #40, ( #58 ) ) ;
#164 = AXIS2_PLACEMENT_3D ( 'NONE', #183, #89, #47 ) ;
#165 = PRODUCT_RELATED_PRODUCT_CATEGORY ( 'detail', '', ( #169 ) ) ;
#166 = CARTESIAN_POINT ( 'NONE',  ( 3.142333204958820020E-14, 3.936869429487360483E-33, 9.000000000000000000 ) ) ;
#167 = PLANE ( 'NONE',  #88 ) ;
#168 = ORIENTED_EDGE ( 'NONE', *, *, #114, .F. ) ;
#169 = PRODUCT ( '55357', '55357', '', ( #147 ) ) ;
#170 = CLOSED_SHELL ( 'NONE', ( #135, #154, #28, #127, #2 ) ) ;
#171 = EDGE_LOOP ( 'NONE', ( #7 ) ) ;
#172 = EDGE_LOOP ( 'NONE', ( #78 ) ) ;
#173 = AXIS2_PLACEMENT_3D ( 'NONE', #77, #61, #113 ) ;
#174 = CYLINDRICAL_SURFACE ( 'NONE', #115, 0.7499999999999986677 ) ;
#175 = SHAPE_DEFINITION_REPRESENTATION ( #195, #133 ) ;
#176 = PERSON_AND_ORGANIZATION_ROLE ( 'creator' ) ;
#177 = CARTESIAN_POINT ( 'NONE',  ( 1.101394160254751759E-15, 0.5249999999999990230, 0.3154518249894721071 ) ) ;
#178 = APPROVAL_ROLE ( '' ) ;
#179 = CLOSED_SHELL ( 'NONE', ( #76, #83, #59 ) ) ;
#180 = UNCERTAINTY_MEASURE_WITH_UNIT (LENGTH_MEASURE( 1.000000000000000082E-05 ), #42, 'distance_accuracy_value', 'NONE');
#181 = APPLICATION_CONTEXT ( 'configuration controlled 3d designs of mechanical parts and assemblies' ) ;
#182 = APPROVAL_ROLE ( '' ) ;
#183 = CARTESIAN_POINT ( 'NONE',  ( 1.047444401652940007E-13, -3.673940397442059178E-15, 30.00000000000000000 ) ) ;
#184 = AXIS2_PLACEMENT_3D ( 'NONE', #140, #36, #222 ) ;
#185 = MANIFOLD_SOLID_BREP ( 'Corps-Déplacer/Copier1[1]', #170 ) ;
#186 = CC_DESIGN_DATE_AND_TIME_ASSIGNMENT ( #27, #39, ( #121 ) ) ;
#187 = APPLICATION_PROTOCOL_DEFINITION ( 'international standard', 'config_control_design', 1994, #181 ) ;
#188 = CARTESIAN_POINT ( 'NONE',  ( 3.278400224091305821E-14, -1.149908004975238788E-15, 9.389711431702998823 ) ) ;
#189 = EDGE_LOOP ( 'NONE', ( #95 ) ) ;
#190 = PERSON_AND_ORGANIZATION_ROLE ( 'design_owner' ) ;
#191 = EDGE_LOOP ( 'NONE', ( #23 ) ) ;
#192 = CIRCLE ( 'NONE', #202, 0.5500000000000000444 ) ;
#193 = CARTESIAN_POINT ( 'NONE',  ( 0.0000000000000000000, 0.0000000000000000000, 0.0000000000000000000 ) ) ;
#194 = COORDINATED_UNIVERSAL_TIME_OFFSET ( 1, 0, .AHEAD. ) ;
#195 = PRODUCT_DEFINITION_SHAPE ( 'NONE', 'NONE',  #108 ) ;
#196 = CC_DESIGN_PERSON_AND_ORGANIZATION_ASSIGNMENT ( #25, #14, ( #121 ) ) ;
#197 = DIRECTION ( 'NONE',  ( 0.0000000000000000000, 0.0000000000000000000, 1.000000000000000000 ) ) ;
#198 = CARTESIAN_POINT ( 'NONE',  ( 1.047444401652940007E-13, -3.673940397442059178E-15, 30.00000000000000000 ) ) ;
#199 = EDGE_CURVE ( 'NONE', #104, #104, #142, .T. ) ;
#200 = CYLINDRICAL_SURFACE ( 'NONE', #50, 0.5249999999999995781 ) ;
#201 = CALENDAR_DATE ( 2021, 8, 10 ) ;
#202 = AXIS2_PLACEMENT_3D ( 'NONE', #198, #102, #159 ) ;
#203 = COORDINATED_UNIVERSAL_TIME_OFFSET ( 1, 0, .AHEAD. ) ;
#204 = CARTESIAN_POINT ( 'NONE',  ( 3.142333204958820020E-14, 0.5249999999999990230, 9.000000000000000000 ) ) ;
#205 = DIRECTION ( 'NONE',  ( -3.491481338843133355E-15, 1.224646799147353207E-16, -1.000000000000000000 ) ) ;
#206 = AXIS2_PLACEMENT_3D ( 'NONE', #136, #152, #4 ) ;
#207 = FACE_BOUND ( 'NONE', #191, .T. ) ;
#208 = DIRECTION ( 'NONE',  ( -3.491481338843133355E-15, 1.224646799147353207E-16, -1.000000000000000000 ) ) ;
#209 = APPROVAL_PERSON_ORGANIZATION ( #60, #20, #18 ) ;
#210 = CARTESIAN_POINT ( 'NONE',  ( 1.101394160254751562E-15, -3.863170677585479607E-17, 0.3154518249894720516 ) ) ;
#211 = ORIENTED_EDGE ( 'NONE', *, *, #10, .F. ) ;
#212 = CC_DESIGN_PERSON_AND_ORGANIZATION_ASSIGNMENT ( #148, #176, ( #108 ) ) ;
#213 = CC_DESIGN_PERSON_AND_ORGANIZATION_ASSIGNMENT ( #5, #190, ( #169 ) ) ;
#214 = PERSON ( 'UNSPECIFIED', 'UNSPECIFIED', 'UNSPECIFIED', ('UNSPECIFIED'), ('UNSPECIFIED'), ('UNSPECIFIED') ) ;
#215 = CARTESIAN_POINT ( 'NONE',  ( 3.278400224091305821E-14, 0.7499999999999963363, 9.389711431702998823 ) ) ;
#216 = CC_DESIGN_APPROVAL ( #20, ( #108 ) ) ;
#217 = FACE_OUTER_BOUND ( 'NONE', #189, .T. ) ;
#218 = CALENDAR_DATE ( 2021, 8, 10 ) ;
#219 = FACE_OUTER_BOUND ( 'NONE', #119, .T. ) ;
#220 = PERSON_AND_ORGANIZATION ( #214, #46 ) ;
#221 = AXIS2_PLACEMENT_3D ( 'NONE', #65, #197, #73 ) ;
#222 = DIRECTION ( 'NONE',  ( 0.0000000000000000000, 1.000000000000000000, 0.0000000000000000000 ) ) ;
#223 = SECURITY_CLASSIFICATION_LEVEL ( 'unclassified' ) ;
ENDSEC;
END-ISO-10303-21;
