ISO-10303-21;
HEADER;
FILE_DESCRIPTION (( 'STEP AP203' ),
    '1' );
FILE_NAME ('55356.step',
    '2021-10-08T05:14:57',
    ( '' ),
    ( '' ),
    'SwSTEP 2.0',
    'SolidWorks 2019',
    '' );
FILE_SCHEMA (( 'CONFIG_CONTROL_DESIGN' ));
ENDSEC;

DATA;
#1 = CARTESIAN_POINT ( 'NONE',  ( 1.047444401652940007E-13, -3.673940397442059178E-15, 30.00000000000000000 ) ) ;
#2 = ADVANCED_FACE ( 'NONE', ( #66, #14 ), #31, .T. ) ;
#3 = VERTEX_POINT ( 'NONE', #68 ) ;
#4 = CARTESIAN_POINT ( 'NONE',  ( 1.090904692061849081E-15, -3.826378575894188949E-17, 0.3124475218943341681 ) ) ;
#5 = LOCAL_TIME ( 7, 14, 57.00000000000000000, #61 ) ;
#6 = DIRECTION ( 'NONE',  ( -4.275831445896958607E-31, -1.000000000000000000, -1.224646799147353207E-16 ) ) ;
#7 = DIRECTION ( 'NONE',  ( -3.491481338843133355E-15, 1.224646799147353207E-16, -1.000000000000000000 ) ) ;
#8 = COORDINATED_UNIVERSAL_TIME_OFFSET ( 1, 0, .AHEAD. ) ;
#9 = DATE_TIME_ROLE ( 'creation_date' ) ;
#10 = CIRCLE ( 'NONE', #70, 0.7499999999999975575 ) ;
#11 = CARTESIAN_POINT ( 'NONE',  ( 0.0000000000000000000, 0.0000000000000000000, 0.0000000000000000000 ) ) ;
#12 = AXIS2_PLACEMENT_3D ( 'NONE', #132, #67, #173 ) ;
#13 = ORIENTED_EDGE ( 'NONE', *, *, #185, .T. ) ;
#14 = FACE_OUTER_BOUND ( 'NONE', #203, .T. ) ;
#15 = EDGE_LOOP ( 'NONE', ( #184 ) ) ;
#16 = ORIENTED_EDGE ( 'NONE', *, *, #131, .F. ) ;
#17 = PRODUCT_RELATED_PRODUCT_CATEGORY ( 'detail', '', ( #190 ) ) ;
#18 = CC_DESIGN_APPROVAL ( #77, ( #164 ) ) ;
#19 = AXIS2_PLACEMENT_3D ( 'NONE', #198, #7, #85 ) ;
#20 = ADVANCED_BREP_SHAPE_REPRESENTATION ( '55356', ( #191, #41, #122 ), #199 ) ;
#21 = FACE_OUTER_BOUND ( 'NONE', #112, .T. ) ;
#22 = FACE_OUTER_BOUND ( 'NONE', #64, .T. ) ;
#23 = EDGE_CURVE ( 'NONE', #39, #39, #47, .T. ) ;
#24 = CARTESIAN_POINT ( 'NONE',  ( 1.040461438975253740E-13, 0.7499999999999962252, 29.80000000000000071 ) ) ;
#25 = APPROVAL_PERSON_ORGANIZATION ( #116, #77, #171 ) ;
#26 = PERSON_AND_ORGANIZATION_ROLE ( 'creator' ) ;
#27 = CARTESIAN_POINT ( 'NONE',  ( 3.142333204958820020E-14, -1.102182119232617714E-15, 9.000000000000000000 ) ) ;
#28 = EDGE_CURVE ( 'NONE', #3, #3, #172, .T. ) ;
#29 = CC_DESIGN_SECURITY_CLASSIFICATION ( #193, ( #65 ) ) ;
#30 = APPROVAL_ROLE ( '' ) ;
#31 = CONICAL_SURFACE ( 'NONE', #83, 0.7499999999999975575, 0.5235987755982938197 ) ;
#32 = FACE_BOUND ( 'NONE', #188, .T. ) ;
#33 = CARTESIAN_POINT ( 'NONE',  ( 1.090904692061849081E-15, -3.826378575894188949E-17, 0.3124475218943341681 ) ) ;
#34 = EDGE_LOOP ( 'NONE', ( #63 ) ) ;
#35 = APPROVAL_PERSON_ORGANIZATION ( #162, #88, #151 ) ;
#36 = ADVANCED_FACE ( 'NONE', ( #223, #32 ), #106, .T. ) ;
#37 = CARTESIAN_POINT ( 'NONE',  ( 1.040461438975253740E-13, -3.649447461459112464E-15, 29.80000000000000071 ) ) ;
#38 = VERTEX_POINT ( 'NONE', #150 ) ;
#39 = VERTEX_POINT ( 'NONE', #212 ) ;
#40 = APPLICATION_CONTEXT ( 'configuration controlled 3d designs of mechanical parts and assemblies' ) ;
#41 = MANIFOLD_SOLID_BREP ( 'Corps-Déplacer/Copier1[2]', #50 ) ;
#42 = APPROVAL_STATUS ( 'not_yet_approved' ) ;
#43 = CLOSED_SHELL ( 'NONE', ( #105, #2, #48, #36, #142 ) ) ;
#44 = CARTESIAN_POINT ( 'NONE',  ( 0.0000000000000000000, 0.0000000000000000000, 0.0000000000000000000 ) ) ;
#45 = APPROVAL_DATE_TIME ( #139, #77 ) ;
#46 = APPROVAL_DATE_TIME ( #202, #123 ) ;
#47 = CIRCLE ( 'NONE', #52, 0.5199999999999990186 ) ;
#48 = ADVANCED_FACE ( 'NONE', ( #213, #21 ), #114, .T. ) ;
#49 = DIRECTION ( 'NONE',  ( -3.491481338843133355E-15, 1.224646799147353207E-16, -1.000000000000000000 ) ) ;
#50 = CLOSED_SHELL ( 'NONE', ( #158, #201, #181 ) ) ;
#51 = DIRECTION ( 'NONE',  ( 3.491481338843133355E-15, -1.224646799147353207E-16, 1.000000000000000000 ) ) ;
#52 = AXIS2_PLACEMENT_3D ( 'NONE', #33, #96, #165 ) ;
#53 = PLANE ( 'NONE',  #94 ) ;
#54 = FACE_OUTER_BOUND ( 'NONE', #15, .T. ) ;
#55 = CIRCLE ( 'NONE', #60, 0.5500000000000000444 ) ;
#56 = FACE_OUTER_BOUND ( 'NONE', #220, .T. ) ;
#57 = FACE_OUTER_BOUND ( 'NONE', #78, .T. ) ;
#58 = DIRECTION ( 'NONE',  ( -3.703711431513922142E-31, -1.000000000000000000, -1.042502088928371630E-16 ) ) ;
#59 = CC_DESIGN_PERSON_AND_ORGANIZATION_ASSIGNMENT ( #207, #169, ( #190 ) ) ;
#60 = AXIS2_PLACEMENT_3D ( 'NONE', #1, #211, #192 ) ;
#61 = COORDINATED_UNIVERSAL_TIME_OFFSET ( 1, 0, .AHEAD. ) ;
#62 = DATE_AND_TIME ( #107, #5 ) ;
#63 = ORIENTED_EDGE ( 'NONE', *, *, #170, .F. ) ;
#64 = EDGE_LOOP ( 'NONE', ( #76 ) ) ;
#65 = PRODUCT_DEFINITION_FORMATION_WITH_SPECIFIED_SOURCE ( 'ANY', '', #190, .NOT_KNOWN. ) ;
#66 = FACE_BOUND ( 'NONE', #141, .T. ) ;
#67 = DIRECTION ( 'NONE',  ( 3.491481338843133355E-15, -1.224646799147353207E-16, 1.000000000000000000 ) ) ;
#68 = CARTESIAN_POINT ( 'NONE',  ( 3.142333204958820020E-14, 0.5199999999999987965, 9.000000000000000000 ) ) ;
#69 = DIRECTION ( 'NONE',  ( -3.491481338843133355E-15, 1.224646799147353207E-16, -1.000000000000000000 ) ) ;
#70 = AXIS2_PLACEMENT_3D ( 'NONE', #113, #69, #152 ) ;
#71 = DIRECTION ( 'NONE',  ( 3.491481338843133355E-15, -1.224646799147353207E-16, 1.000000000000000000 ) ) ;
#72 = CARTESIAN_POINT ( 'NONE',  ( 3.142333204958820020E-14, 3.899375434920813085E-33, 9.000000000000000000 ) ) ;
#73 = CALENDAR_DATE ( 2021, 8, 10 ) ;
#74 = AXIS2_PLACEMENT_3D ( 'NONE', #129, #206, #154 ) ;
#75 = AXIS2_PLACEMENT_3D ( 'NONE', #37, #196, #98 ) ;
#76 = ORIENTED_EDGE ( 'NONE', *, *, #23, .T. ) ;
#77 = APPROVAL ( #176, 'UNSPECIFIED' ) ;
#78 = EDGE_LOOP ( 'NONE', ( #124 ) ) ;
#79 = DIRECTION ( 'NONE',  ( 0.0000000000000000000, 0.0000000000000000000, 1.000000000000000000 ) ) ;
#80 = CARTESIAN_POINT ( 'NONE',  ( 3.142333204958820020E-14, -1.102182119232617714E-15, 9.000000000000000000 ) ) ;
#81 = DIRECTION ( 'NONE',  ( 1.000000000000000000, 0.0000000000000000000, 0.0000000000000000000 ) ) ;
#82 = AXIS2_PLACEMENT_3D ( 'NONE', #44, #117, #135 ) ;
#83 = AXIS2_PLACEMENT_3D ( 'NONE', #205, #51, #167 ) ;
#84 = FACE_OUTER_BOUND ( 'NONE', #97, .T. ) ;
#85 = DIRECTION ( 'NONE',  ( 4.275831445896959482E-31, 1.000000000000000000, 1.224646799147353207E-16 ) ) ;
#86 = CARTESIAN_POINT ( 'NONE',  ( 3.281423935627582694E-14, 0.7499999999999963363, 9.398371685740841031 ) ) ;
#87 =( NAMED_UNIT ( * ) PLANE_ANGLE_UNIT ( ) SI_UNIT ( $, .RADIAN. ) );
#88 = APPROVAL ( #146, 'UNSPECIFIED' ) ;
#89 = PERSON_AND_ORGANIZATION ( #144, #110 ) ;
#90 = COORDINATED_UNIVERSAL_TIME_OFFSET ( 1, 0, .AHEAD. ) ;
#91 = LOCAL_TIME ( 7, 14, 57.00000000000000000, #8 ) ;
#92 = COORDINATED_UNIVERSAL_TIME_OFFSET ( 1, 0, .AHEAD. ) ;
#93 = CALENDAR_DATE ( 2021, 8, 10 ) ;
#94 = AXIS2_PLACEMENT_3D ( 'NONE', #101, #194, #209 ) ;
#95 = ORIENTED_EDGE ( 'NONE', *, *, #170, .T. ) ;
#96 = DIRECTION ( 'NONE',  ( -3.491481338843133355E-15, 1.224646799147353207E-16, -1.000000000000000000 ) ) ;
#97 = EDGE_LOOP ( 'NONE', ( #186 ) ) ;
#98 = DIRECTION ( 'NONE',  ( 0.0000000000000000000, 1.000000000000000000, 0.0000000000000000000 ) ) ;
#99 = AXIS2_PLACEMENT_3D ( 'NONE', #72, #71, #6 ) ;
#100 = CC_DESIGN_DATE_AND_TIME_ASSIGNMENT ( #62, #9, ( #164 ) ) ;
#101 = CARTESIAN_POINT ( 'NONE',  ( 1.047444401652940007E-13, 4.124339402320052999E-33, 30.00000000000000000 ) ) ;
#102 = VERTEX_POINT ( 'NONE', #133 ) ;
#103 =( LENGTH_UNIT ( ) NAMED_UNIT ( * ) SI_UNIT ( .MILLI., .METRE. ) );
#104 = COORDINATED_UNIVERSAL_TIME_OFFSET ( 1, 0, .AHEAD. ) ;
#105 = ADVANCED_FACE ( 'NONE', ( #57 ), #136, .F. ) ;
#106 = CONICAL_SURFACE ( 'NONE', #74, 0.5500000000000000444, 0.7853981633974510546 ) ;
#107 = CALENDAR_DATE ( 2021, 8, 10 ) ;
#108 = PERSON_AND_ORGANIZATION ( #144, #110 ) ;
#109 = ORIENTED_EDGE ( 'NONE', *, *, #28, .T. ) ;
#110 = ORGANIZATION ( 'UNSPECIFIED', 'UNSPECIFIED', '' ) ;
#111 = ORIENTED_EDGE ( 'NONE', *, *, #131, .T. ) ;
#112 = EDGE_LOOP ( 'NONE', ( #111 ) ) ;
#113 = CARTESIAN_POINT ( 'NONE',  ( 3.281423935627582694E-14, -1.150968580213963635E-15, 9.398371685740841031 ) ) ;
#114 = CYLINDRICAL_SURFACE ( 'NONE', #19, 0.7499999999999986677 ) ;
#115 = CC_DESIGN_APPROVAL ( #88, ( #193 ) ) ;
#116 = PERSON_AND_ORGANIZATION ( #144, #110 ) ;
#117 = DIRECTION ( 'NONE',  ( -3.491481338843133355E-15, 1.224646799147353207E-16, -1.000000000000000000 ) ) ;
#118 = VERTEX_POINT ( 'NONE', #86 ) ;
#119 = LOCAL_TIME ( 7, 14, 57.00000000000000000, #104 ) ;
#120 = APPLICATION_PROTOCOL_DEFINITION ( 'international standard', 'config_control_design', 1994, #40 ) ;
#121 = PERSON_AND_ORGANIZATION ( #144, #110 ) ;
#122 = AXIS2_PLACEMENT_3D ( 'NONE', #11, #79, #81 ) ;
#123 = APPROVAL ( #42, 'UNSPECIFIED' ) ;
#124 = ORIENTED_EDGE ( 'NONE', *, *, #127, .T. ) ;
#125 = PRODUCT_DEFINITION_SHAPE ( 'NONE', 'NONE',  #164 ) ;
#126 = ORIENTED_EDGE ( 'NONE', *, *, #28, .F. ) ;
#127 = EDGE_CURVE ( 'NONE', #102, #102, #168, .T. ) ;
#128 = UNCERTAINTY_MEASURE_WITH_UNIT (LENGTH_MEASURE( 1.000000000000000082E-05 ), #103, 'distance_accuracy_value', 'NONE');
#129 = CARTESIAN_POINT ( 'NONE',  ( 1.047444401652940007E-13, -3.673940397442059178E-15, 30.00000000000000000 ) ) ;
#130 = MECHANICAL_CONTEXT ( 'NONE', #40, 'mechanical' ) ;
#131 = EDGE_CURVE ( 'NONE', #177, #177, #219, .T. ) ;
#132 = CARTESIAN_POINT ( 'NONE',  ( 3.142333204958820020E-14, 3.899375434920813085E-33, 9.000000000000000000 ) ) ;
#133 = CARTESIAN_POINT ( 'NONE',  ( 3.142333204958820020E-14, 0.5199999999999987965, 9.000000000000000000 ) ) ;
#134 = DIRECTION ( 'NONE',  ( 0.0000000000000000000, 1.000000000000000000, 0.0000000000000000000 ) ) ;
#135 = DIRECTION ( 'NONE',  ( 4.275831445896958607E-31, 1.000000000000000000, 1.224646799147352961E-16 ) ) ;
#136 = PLANE ( 'NONE',  #99 ) ;
#137 = PERSON_AND_ORGANIZATION ( #144, #110 ) ;
#138 = CC_DESIGN_APPROVAL ( #123, ( #65 ) ) ;
#139 = DATE_AND_TIME ( #93, #189 ) ;
#140 = SHAPE_DEFINITION_REPRESENTATION ( #125, #20 ) ;
#141 = EDGE_LOOP ( 'NONE', ( #163 ) ) ;
#142 = ADVANCED_FACE ( 'NONE', ( #54 ), #53, .F. ) ;
#143 = EDGE_LOOP ( 'NONE', ( #16 ) ) ;
#144 = PERSON ( 'UNSPECIFIED', 'UNSPECIFIED', 'UNSPECIFIED', ('UNSPECIFIED'), ('UNSPECIFIED'), ('UNSPECIFIED') ) ;
#145 = DIRECTION ( 'NONE',  ( 0.0000000000000000000, 1.000000000000000000, 0.0000000000000000000 ) ) ;
#146 = APPROVAL_STATUS ( 'not_yet_approved' ) ;
#147 = APPLICATION_CONTEXT ( 'configuration controlled 3d designs of mechanical parts and assemblies' ) ;
#148 = CC_DESIGN_DATE_AND_TIME_ASSIGNMENT ( #166, #175, ( #193 ) ) ;
#149 = CONICAL_SURFACE ( 'NONE', #215, 0.5199999999999990186, 1.029744258676649649 ) ;
#150 = CARTESIAN_POINT ( 'NONE',  ( 1.047444401652940007E-13, 0.5499999999999963807, 30.00000000000000000 ) ) ;
#151 = APPROVAL_ROLE ( '' ) ;
#152 = DIRECTION ( 'NONE',  ( 0.0000000000000000000, 1.000000000000000000, 0.0000000000000000000 ) ) ;
#153 = CC_DESIGN_PERSON_AND_ORGANIZATION_ASSIGNMENT ( #197, #26, ( #65 ) ) ;
#154 = DIRECTION ( 'NONE',  ( 0.0000000000000000000, 1.000000000000000000, 0.0000000000000000000 ) ) ;
#155 = DIRECTION ( 'NONE',  ( -3.491481338843133355E-15, 1.224646799147353207E-16, -1.000000000000000000 ) ) ;
#156 = CYLINDRICAL_SURFACE ( 'NONE', #82, 0.5199999999999994627 ) ;
#157 = PERSON_AND_ORGANIZATION_ROLE ( 'classification_officer' ) ;
#158 = ADVANCED_FACE ( 'NONE', ( #22 ), #149, .T. ) ;
#159 = CALENDAR_DATE ( 2021, 8, 10 ) ;
#160 =( NAMED_UNIT ( * ) SI_UNIT ( $, .STERADIAN. ) SOLID_ANGLE_UNIT ( ) );
#161 = PERSON_AND_ORGANIZATION_ROLE ( 'design_supplier' ) ;
#162 = PERSON_AND_ORGANIZATION ( #144, #110 ) ;
#163 = ORIENTED_EDGE ( 'NONE', *, *, #127, .F. ) ;
#164 = PRODUCT_DEFINITION ( 'UNKNOWN', '', #65, #187 ) ;
#165 = DIRECTION ( 'NONE',  ( 3.703711431513922142E-31, 1.000000000000000000, 1.042502088928371630E-16 ) ) ;
#166 = DATE_AND_TIME ( #73, #91 ) ;
#167 = DIRECTION ( 'NONE',  ( 0.0000000000000000000, -1.000000000000000000, 0.0000000000000000000 ) ) ;
#168 = CIRCLE ( 'NONE', #182, 0.5199999999999997957 ) ;
#169 = PERSON_AND_ORGANIZATION_ROLE ( 'design_owner' ) ;
#170 = EDGE_CURVE ( 'NONE', #118, #118, #10, .T. ) ;
#171 = APPROVAL_ROLE ( '' ) ;
#172 = CIRCLE ( 'NONE', #204, 0.5199999999999997957 ) ;
#173 = DIRECTION ( 'NONE',  ( -4.275831445896958607E-31, -1.000000000000000000, -1.224646799147353207E-16 ) ) ;
#174 = CC_DESIGN_PERSON_AND_ORGANIZATION_ASSIGNMENT ( #121, #216, ( #164 ) ) ;
#175 = DATE_TIME_ROLE ( 'classification_date' ) ;
#176 = APPROVAL_STATUS ( 'not_yet_approved' ) ;
#177 = VERTEX_POINT ( 'NONE', #24 ) ;
#178 = APPLICATION_PROTOCOL_DEFINITION ( 'international standard', 'config_control_design', 1994, #147 ) ;
#179 = CALENDAR_DATE ( 2021, 8, 10 ) ;
#180 = FACE_OUTER_BOUND ( 'NONE', #221, .T. ) ;
#181 = ADVANCED_FACE ( 'NONE', ( #180 ), #210, .T. ) ;
#182 = AXIS2_PLACEMENT_3D ( 'NONE', #27, #155, #134 ) ;
#183 = CC_DESIGN_PERSON_AND_ORGANIZATION_ASSIGNMENT ( #137, #157, ( #193 ) ) ;
#184 = ORIENTED_EDGE ( 'NONE', *, *, #185, .F. ) ;
#185 = EDGE_CURVE ( 'NONE', #38, #38, #55, .T. ) ;
#186 = ORIENTED_EDGE ( 'NONE', *, *, #23, .F. ) ;
#187 = DESIGN_CONTEXT ( 'detailed design', #147, 'design' ) ;
#188 = EDGE_LOOP ( 'NONE', ( #13 ) ) ;
#189 = LOCAL_TIME ( 7, 14, 57.00000000000000000, #90 ) ;
#190 = PRODUCT ( '55356', '55356', '', ( #130 ) ) ;
#191 = MANIFOLD_SOLID_BREP ( 'Corps-Déplacer/Copier1[1]', #43 ) ;
#192 = DIRECTION ( 'NONE',  ( 0.0000000000000000000, 1.000000000000000000, 0.0000000000000000000 ) ) ;
#193 = SECURITY_CLASSIFICATION ( '', '', #200 ) ;
#194 = DIRECTION ( 'NONE',  ( -3.491481338843133355E-15, 1.224646799147353207E-16, -1.000000000000000000 ) ) ;
#195 = DIRECTION ( 'NONE',  ( 3.491481338843133355E-15, -1.224646799147353207E-16, 1.000000000000000000 ) ) ;
#196 = DIRECTION ( 'NONE',  ( -3.491481338843133355E-15, 1.224646799147353207E-16, -1.000000000000000000 ) ) ;
#197 = PERSON_AND_ORGANIZATION ( #144, #110 ) ;
#198 = CARTESIAN_POINT ( 'NONE',  ( 0.0000000000000000000, 0.0000000000000000000, 0.0000000000000000000 ) ) ;
#199 =( GEOMETRIC_REPRESENTATION_CONTEXT ( 3 ) GLOBAL_UNCERTAINTY_ASSIGNED_CONTEXT ( ( #128 ) ) GLOBAL_UNIT_ASSIGNED_CONTEXT ( ( #103, #87, #160 ) ) REPRESENTATION_CONTEXT ( 'NONE', 'WORKASPACE' ) );
#200 = SECURITY_CLASSIFICATION_LEVEL ( 'unclassified' ) ;
#201 = ADVANCED_FACE ( 'NONE', ( #84, #56 ), #156, .T. ) ;
#202 = DATE_AND_TIME ( #179, #119 ) ;
#203 = EDGE_LOOP ( 'NONE', ( #95 ) ) ;
#204 = AXIS2_PLACEMENT_3D ( 'NONE', #80, #49, #145 ) ;
#205 = CARTESIAN_POINT ( 'NONE',  ( 3.281423935627582694E-14, -1.150968580213963635E-15, 9.398371685740841031 ) ) ;
#206 = DIRECTION ( 'NONE',  ( -3.491481338843133355E-15, 1.224646799147353207E-16, -1.000000000000000000 ) ) ;
#207 = PERSON_AND_ORGANIZATION ( #144, #110 ) ;
#208 = APPROVAL_PERSON_ORGANIZATION ( #108, #123, #30 ) ;
#209 = DIRECTION ( 'NONE',  ( 4.275831445896958607E-31, 1.000000000000000000, 1.224646799147353207E-16 ) ) ;
#210 = PLANE ( 'NONE',  #12 ) ;
#211 = DIRECTION ( 'NONE',  ( -3.491481338843133355E-15, 1.224646799147353207E-16, -1.000000000000000000 ) ) ;
#212 = CARTESIAN_POINT ( 'NONE',  ( 1.090904692061849081E-15, 0.5199999999999990186, 0.3124475218943342236 ) ) ;
#213 = FACE_OUTER_BOUND ( 'NONE', #34, .T. ) ;
#214 = APPROVAL_DATE_TIME ( #218, #88 ) ;
#215 = AXIS2_PLACEMENT_3D ( 'NONE', #4, #195, #58 ) ;
#216 = PERSON_AND_ORGANIZATION_ROLE ( 'creator' ) ;
#217 = CC_DESIGN_PERSON_AND_ORGANIZATION_ASSIGNMENT ( #89, #161, ( #65 ) ) ;
#218 = DATE_AND_TIME ( #159, #222 ) ;
#219 = CIRCLE ( 'NONE', #75, 0.7499999999999998890 ) ;
#220 = EDGE_LOOP ( 'NONE', ( #109 ) ) ;
#221 = EDGE_LOOP ( 'NONE', ( #126 ) ) ;
#222 = LOCAL_TIME ( 7, 14, 57.00000000000000000, #92 ) ;
#223 = FACE_OUTER_BOUND ( 'NONE', #143, .T. ) ;
ENDSEC;
END-ISO-10303-21;
