ISO-10303-21;
HEADER;
FILE_DESCRIPTION (( 'STEP AP203' ),
    '1' );
FILE_NAME ('55355.step',
    '2021-10-08T05:14:56',
    ( '' ),
    ( '' ),
    'SwSTEP 2.0',
    'SolidWorks 2019',
    '' );
FILE_SCHEMA (( 'CONFIG_CONTROL_DESIGN' ));
ENDSEC;

DATA;
#1 = CARTESIAN_POINT ( 'NONE',  ( 3.142333204958820651E-14, -1.102182119232617911E-15, 9.000000000000001776 ) ) ;
#2 = ADVANCED_FACE ( 'NONE', ( #219, #168 ), #185, .T. ) ;
#3 = CARTESIAN_POINT ( 'NONE',  ( 0.0000000000000000000, 0.0000000000000000000, 0.0000000000000000000 ) ) ;
#4 = CONICAL_SURFACE ( 'NONE', #94, 0.5500000000000000444, 0.7853981633974510546 ) ;
#5 = CARTESIAN_POINT ( 'NONE',  ( 3.142333204958820651E-14, 0.5149999999999997913, 9.000000000000001776 ) ) ;
#6 = PERSON_AND_ORGANIZATION ( #175, #218 ) ;
#7 = APPROVAL_DATE_TIME ( #152, #208 ) ;
#8 = PERSON_AND_ORGANIZATION_ROLE ( 'design_supplier' ) ;
#9 =( GEOMETRIC_REPRESENTATION_CONTEXT ( 3 ) GLOBAL_UNCERTAINTY_ASSIGNED_CONTEXT ( ( #27 ) ) GLOBAL_UNIT_ASSIGNED_CONTEXT ( ( #131, #194, #22 ) ) REPRESENTATION_CONTEXT ( 'NONE', 'WORKASPACE' ) );
#10 = ADVANCED_FACE ( 'NONE', ( #200 ), #204, .F. ) ;
#11 = APPROVAL_STATUS ( 'not_yet_approved' ) ;
#12 = APPROVAL_PERSON_ORGANIZATION ( #221, #208, #17 ) ;
#13 = CARTESIAN_POINT ( 'NONE',  ( 1.047444401652940007E-13, 4.124339402320052999E-33, 30.00000000000000000 ) ) ;
#14 = DIRECTION ( 'NONE',  ( 3.491481338843133355E-15, -1.224646799147353207E-16, 1.000000000000000000 ) ) ;
#15 = EDGE_LOOP ( 'NONE', ( #169 ) ) ;
#16 = PLANE ( 'NONE',  #163 ) ;
#17 = APPROVAL_ROLE ( '' ) ;
#18 = DIRECTION ( 'NONE',  ( -3.739669794926678821E-31, -1.000000000000000000, -1.052623468432530621E-16 ) ) ;
#19 = ADVANCED_FACE ( 'NONE', ( #53, #70 ), #4, .T. ) ;
#20 = CARTESIAN_POINT ( 'NONE',  ( 3.284447647163860830E-14, -1.152029155452688679E-15, 9.407031939778686791 ) ) ;
#21 = ADVANCED_BREP_SHAPE_REPRESENTATION ( '55355', ( #36, #40, #116 ), #9 ) ;
#22 =( NAMED_UNIT ( * ) SI_UNIT ( $, .STERADIAN. ) SOLID_ANGLE_UNIT ( ) );
#23 = APPLICATION_CONTEXT ( 'configuration controlled 3d designs of mechanical parts and assemblies' ) ;
#24 = DIRECTION ( 'NONE',  ( 0.0000000000000000000, 1.000000000000000000, 0.0000000000000000000 ) ) ;
#25 = AXIS2_PLACEMENT_3D ( 'NONE', #92, #128, #18 ) ;
#26 = CALENDAR_DATE ( 2021, 8, 10 ) ;
#27 = UNCERTAINTY_MEASURE_WITH_UNIT (LENGTH_MEASURE( 1.000000000000000082E-05 ), #131, 'distance_accuracy_value', 'NONE');
#28 = DATE_AND_TIME ( #26, #45 ) ;
#29 = EDGE_CURVE ( 'NONE', #129, #129, #173, .T. ) ;
#30 = AXIS2_PLACEMENT_3D ( 'NONE', #120, #155, #217 ) ;
#31 = DATE_AND_TIME ( #66, #156 ) ;
#32 = EDGE_LOOP ( 'NONE', ( #138 ) ) ;
#33 = CC_DESIGN_APPROVAL ( #57, ( #42 ) ) ;
#34 = ORIENTED_EDGE ( 'NONE', *, *, #170, .T. ) ;
#35 = CARTESIAN_POINT ( 'NONE',  ( 3.142333204958820651E-14, -2.085804737857224477E-31, 9.000000000000001776 ) ) ;
#36 = MANIFOLD_SOLID_BREP ( 'Corps-Déplacer/Copier1[1]', #41 ) ;
#37 = DIRECTION ( 'NONE',  ( -3.491481338843133355E-15, 1.224646799147353207E-16, -1.000000000000000000 ) ) ;
#38 = CC_DESIGN_PERSON_AND_ORGANIZATION_ASSIGNMENT ( #150, #62, ( #42 ) ) ;
#39 = CC_DESIGN_APPROVAL ( #193, ( #202 ) ) ;
#40 = MANIFOLD_SOLID_BREP ( 'Corps-Déplacer/Copier1[2]', #103 ) ;
#41 = CLOSED_SHELL ( 'NONE', ( #10, #109, #216, #19, #89 ) ) ;
#42 = SECURITY_CLASSIFICATION ( '', '', #179 ) ;
#43 = VERTEX_POINT ( 'NONE', #209 ) ;
#44 = APPROVAL_ROLE ( '' ) ;
#45 = LOCAL_TIME ( 7, 14, 56.00000000000000000, #118 ) ;
#46 = PERSON_AND_ORGANIZATION_ROLE ( 'creator' ) ;
#47 = COORDINATED_UNIVERSAL_TIME_OFFSET ( 1, 0, .AHEAD. ) ;
#48 = DIRECTION ( 'NONE',  ( -4.275831445896958607E-31, -1.000000000000000000, -1.224646799147353207E-16 ) ) ;
#49 = ORIENTED_EDGE ( 'NONE', *, *, #177, .F. ) ;
#50 = AXIS2_PLACEMENT_3D ( 'NONE', #184, #69, #203 ) ;
#51 = EDGE_LOOP ( 'NONE', ( #199 ) ) ;
#52 = CC_DESIGN_DATE_AND_TIME_ASSIGNMENT ( #28, #67, ( #98 ) ) ;
#53 = FACE_OUTER_BOUND ( 'NONE', #142, .T. ) ;
#54 = DIRECTION ( 'NONE',  ( -3.491481338843133355E-15, 1.224646799147353207E-16, -1.000000000000000000 ) ) ;
#55 = CONICAL_SURFACE ( 'NONE', #25, 0.5149999999999990141, 1.029744258676649649 ) ;
#56 = DIRECTION ( 'NONE',  ( -3.491481338843133355E-15, 1.224646799147353207E-16, -1.000000000000000000 ) ) ;
#57 = APPROVAL ( #101, 'UNSPECIFIED' ) ;
#58 = APPLICATION_CONTEXT ( 'configuration controlled 3d designs of mechanical parts and assemblies' ) ;
#59 = PERSON_AND_ORGANIZATION ( #175, #218 ) ;
#60 = FACE_OUTER_BOUND ( 'NONE', #110, .T. ) ;
#61 = CARTESIAN_POINT ( 'NONE',  ( 3.142333204958820651E-14, -1.102182119232617911E-15, 9.000000000000001776 ) ) ;
#62 = PERSON_AND_ORGANIZATION_ROLE ( 'classification_officer' ) ;
#63 = AXIS2_PLACEMENT_3D ( 'NONE', #74, #205, #125 ) ;
#64 = EDGE_CURVE ( 'NONE', #160, #160, #100, .T. ) ;
#65 = PERSON_AND_ORGANIZATION ( #175, #218 ) ;
#66 = CALENDAR_DATE ( 2021, 8, 10 ) ;
#67 = DATE_TIME_ROLE ( 'creation_date' ) ;
#68 = AXIS2_PLACEMENT_3D ( 'NONE', #20, #56, #24 ) ;
#69 = DIRECTION ( 'NONE',  ( -3.491481338843133355E-15, 1.224646799147353207E-16, -1.000000000000000000 ) ) ;
#70 = FACE_BOUND ( 'NONE', #140, .T. ) ;
#71 = ORIENTED_EDGE ( 'NONE', *, *, #80, .T. ) ;
#72 = ADVANCED_FACE ( 'NONE', ( #108 ), #137, .T. ) ;
#73 = ORIENTED_EDGE ( 'NONE', *, *, #29, .F. ) ;
#74 = CARTESIAN_POINT ( 'NONE',  ( 3.284447647163860830E-14, -1.152029155452688679E-15, 9.407031939778686791 ) ) ;
#75 = PRODUCT ( '55355', '55355', '', ( #132 ) ) ;
#76 = APPROVAL_STATUS ( 'not_yet_approved' ) ;
#77 = CIRCLE ( 'NONE', #104, 0.7499999999999998890 ) ;
#78 = APPLICATION_PROTOCOL_DEFINITION ( 'international standard', 'config_control_design', 1994, #23 ) ;
#79 = DIRECTION ( 'NONE',  ( 0.0000000000000000000, 1.000000000000000000, 0.0000000000000000000 ) ) ;
#80 = EDGE_CURVE ( 'NONE', #161, #161, #77, .T. ) ;
#81 = DIRECTION ( 'NONE',  ( -3.491481338843133355E-15, 1.224646799147353207E-16, -1.000000000000000000 ) ) ;
#82 = COORDINATED_UNIVERSAL_TIME_OFFSET ( 1, 0, .AHEAD. ) ;
#83 = LOCAL_TIME ( 7, 14, 56.00000000000000000, #143 ) ;
#84 = APPROVAL_DATE_TIME ( #102, #57 ) ;
#85 = APPROVAL_DATE_TIME ( #31, #193 ) ;
#86 = AXIS2_PLACEMENT_3D ( 'NONE', #141, #37, #122 ) ;
#87 = DIRECTION ( 'NONE',  ( 3.491481338843133355E-15, -1.224646799147353207E-16, 1.000000000000000000 ) ) ;
#88 = FACE_BOUND ( 'NONE', #91, .T. ) ;
#89 = ADVANCED_FACE ( 'NONE', ( #171 ), #16, .F. ) ;
#90 = ORIENTED_EDGE ( 'NONE', *, *, #183, .F. ) ;
#91 = EDGE_LOOP ( 'NONE', ( #90 ) ) ;
#92 = CARTESIAN_POINT ( 'NONE',  ( 1.080415223868946798E-15, -3.789586474202899524E-17, 0.3094432187991963956 ) ) ;
#93 = FACE_OUTER_BOUND ( 'NONE', #180, .T. ) ;
#94 = AXIS2_PLACEMENT_3D ( 'NONE', #153, #107, #124 ) ;
#95 = DIRECTION ( 'NONE',  ( 4.275831445896959482E-31, 1.000000000000000000, 1.224646799147353207E-16 ) ) ;
#96 = PRODUCT_RELATED_PRODUCT_CATEGORY ( 'detail', '', ( #75 ) ) ;
#97 = CARTESIAN_POINT ( 'NONE',  ( 1.080415223868946995E-15, 0.5149999999999990141, 0.3094432187991964511 ) ) ;
#98 = PRODUCT_DEFINITION ( 'UNKNOWN', '', #202, #222 ) ;
#99 = CARTESIAN_POINT ( 'NONE',  ( 1.047444401652940007E-13, 0.5499999999999963807, 30.00000000000000000 ) ) ;
#100 = CIRCLE ( 'NONE', #50, 0.5149999999999990141 ) ;
#101 = APPROVAL_STATUS ( 'not_yet_approved' ) ;
#102 = DATE_AND_TIME ( #178, #186 ) ;
#103 = CLOSED_SHELL ( 'NONE', ( #146, #2, #72 ) ) ;
#104 = AXIS2_PLACEMENT_3D ( 'NONE', #157, #111, #214 ) ;
#105 = PERSON_AND_ORGANIZATION ( #175, #218 ) ;
#106 = PERSON_AND_ORGANIZATION ( #175, #218 ) ;
#107 = DIRECTION ( 'NONE',  ( -3.491481338843133355E-15, 1.224646799147353207E-16, -1.000000000000000000 ) ) ;
#108 = FACE_OUTER_BOUND ( 'NONE', #51, .T. ) ;
#109 = ADVANCED_FACE ( 'NONE', ( #88, #215 ), #211, .T. ) ;
#110 = EDGE_LOOP ( 'NONE', ( #49 ) ) ;
#111 = DIRECTION ( 'NONE',  ( -3.491481338843133355E-15, 1.224646799147353207E-16, -1.000000000000000000 ) ) ;
#112 = DIRECTION ( 'NONE',  ( -4.275831445896958607E-31, -1.000000000000000000, -1.224646799147353207E-16 ) ) ;
#113 = DIRECTION ( 'NONE',  ( 1.000000000000000000, 0.0000000000000000000, 0.0000000000000000000 ) ) ;
#114 = APPLICATION_PROTOCOL_DEFINITION ( 'international standard', 'config_control_design', 1994, #58 ) ;
#115 = LOCAL_TIME ( 7, 14, 56.00000000000000000, #82 ) ;
#116 = AXIS2_PLACEMENT_3D ( 'NONE', #174, #188, #113 ) ;
#117 = CC_DESIGN_DATE_AND_TIME_ASSIGNMENT ( #149, #134, ( #42 ) ) ;
#118 = COORDINATED_UNIVERSAL_TIME_OFFSET ( 1, 0, .AHEAD. ) ;
#119 = CC_DESIGN_PERSON_AND_ORGANIZATION_ASSIGNMENT ( #105, #8, ( #202 ) ) ;
#120 = CARTESIAN_POINT ( 'NONE',  ( 1.047444401652940007E-13, -3.673940397442059178E-15, 30.00000000000000000 ) ) ;
#121 = AXIS2_PLACEMENT_3D ( 'NONE', #3, #81, #95 ) ;
#122 = DIRECTION ( 'NONE',  ( 4.275831445896958607E-31, 1.000000000000000000, 1.224646799147353207E-16 ) ) ;
#123 = ORIENTED_EDGE ( 'NONE', *, *, #183, .T. ) ;
#124 = DIRECTION ( 'NONE',  ( 0.0000000000000000000, 1.000000000000000000, 0.0000000000000000000 ) ) ;
#125 = DIRECTION ( 'NONE',  ( 0.0000000000000000000, -1.000000000000000000, 0.0000000000000000000 ) ) ;
#126 = AXIS2_PLACEMENT_3D ( 'NONE', #35, #87, #112 ) ;
#127 = VERTEX_POINT ( 'NONE', #223 ) ;
#128 = DIRECTION ( 'NONE',  ( 3.491481338843133355E-15, -1.224646799147353207E-16, 1.000000000000000000 ) ) ;
#129 = VERTEX_POINT ( 'NONE', #99 ) ;
#130 = APPROVAL_PERSON_ORGANIZATION ( #65, #193, #44 ) ;
#131 =( LENGTH_UNIT ( ) NAMED_UNIT ( * ) SI_UNIT ( .MILLI., .METRE. ) );
#132 = MECHANICAL_CONTEXT ( 'NONE', #23, 'mechanical' ) ;
#133 = APPROVAL_PERSON_ORGANIZATION ( #106, #57, #213 ) ;
#134 = DATE_TIME_ROLE ( 'classification_date' ) ;
#135 = CC_DESIGN_PERSON_AND_ORGANIZATION_ASSIGNMENT ( #164, #46, ( #98 ) ) ;
#136 = CIRCLE ( 'NONE', #181, 0.5150000000000009015 ) ;
#137 = PLANE ( 'NONE',  #126 ) ;
#138 = ORIENTED_EDGE ( 'NONE', *, *, #64, .T. ) ;
#139 = CIRCLE ( 'NONE', #68, 0.7499999999999975575 ) ;
#140 = EDGE_LOOP ( 'NONE', ( #167 ) ) ;
#141 = CARTESIAN_POINT ( 'NONE',  ( 0.0000000000000000000, 0.0000000000000000000, 0.0000000000000000000 ) ) ;
#142 = EDGE_LOOP ( 'NONE', ( #201 ) ) ;
#143 = COORDINATED_UNIVERSAL_TIME_OFFSET ( 1, 0, .AHEAD. ) ;
#144 = CC_DESIGN_APPROVAL ( #208, ( #98 ) ) ;
#145 = CYLINDRICAL_SURFACE ( 'NONE', #121, 0.7499999999999986677 ) ;
#146 = ADVANCED_FACE ( 'NONE', ( #210 ), #55, .T. ) ;
#147 = VERTEX_POINT ( 'NONE', #5 ) ;
#148 = PERSON_AND_ORGANIZATION_ROLE ( 'creator' ) ;
#149 = DATE_AND_TIME ( #195, #115 ) ;
#150 = PERSON_AND_ORGANIZATION ( #175, #218 ) ;
#151 = CC_DESIGN_PERSON_AND_ORGANIZATION_ASSIGNMENT ( #59, #172, ( #75 ) ) ;
#152 = DATE_AND_TIME ( #206, #83 ) ;
#153 = CARTESIAN_POINT ( 'NONE',  ( 1.047444401652940007E-13, -3.673940397442059178E-15, 30.00000000000000000 ) ) ;
#154 = EDGE_LOOP ( 'NONE', ( #187 ) ) ;
#155 = DIRECTION ( 'NONE',  ( -3.491481338843133355E-15, 1.224646799147353207E-16, -1.000000000000000000 ) ) ;
#156 = LOCAL_TIME ( 7, 14, 56.00000000000000000, #47 ) ;
#157 = CARTESIAN_POINT ( 'NONE',  ( 1.040461438975253740E-13, -3.649447461459112464E-15, 29.80000000000000071 ) ) ;
#158 = CC_DESIGN_PERSON_AND_ORGANIZATION_ASSIGNMENT ( #6, #148, ( #202 ) ) ;
#159 = DIRECTION ( 'NONE',  ( 4.275831445896958607E-31, 1.000000000000000000, 1.224646799147353207E-16 ) ) ;
#160 = VERTEX_POINT ( 'NONE', #97 ) ;
#161 = VERTEX_POINT ( 'NONE', #191 ) ;
#162 = DIRECTION ( 'NONE',  ( 0.0000000000000000000, 1.000000000000000000, 0.0000000000000000000 ) ) ;
#163 = AXIS2_PLACEMENT_3D ( 'NONE', #13, #54, #159 ) ;
#164 = PERSON_AND_ORGANIZATION ( #175, #218 ) ;
#165 = CC_DESIGN_SECURITY_CLASSIFICATION ( #42, ( #202 ) ) ;
#166 = EDGE_LOOP ( 'NONE', ( #123 ) ) ;
#167 = ORIENTED_EDGE ( 'NONE', *, *, #29, .T. ) ;
#168 = FACE_OUTER_BOUND ( 'NONE', #212, .T. ) ;
#169 = ORIENTED_EDGE ( 'NONE', *, *, #177, .T. ) ;
#170 = EDGE_CURVE ( 'NONE', #147, #147, #136, .T. ) ;
#171 = FACE_OUTER_BOUND ( 'NONE', #220, .T. ) ;
#172 = PERSON_AND_ORGANIZATION_ROLE ( 'design_owner' ) ;
#173 = CIRCLE ( 'NONE', #30, 0.5500000000000000444 ) ;
#174 = CARTESIAN_POINT ( 'NONE',  ( 0.0000000000000000000, 0.0000000000000000000, 0.0000000000000000000 ) ) ;
#175 = PERSON ( 'UNSPECIFIED', 'UNSPECIFIED', 'UNSPECIFIED', ('UNSPECIFIED'), ('UNSPECIFIED'), ('UNSPECIFIED') ) ;
#176 = AXIS2_PLACEMENT_3D ( 'NONE', #1, #207, #79 ) ;
#177 = EDGE_CURVE ( 'NONE', #43, #43, #139, .T. ) ;
#178 = CALENDAR_DATE ( 2021, 8, 10 ) ;
#179 = SECURITY_CLASSIFICATION_LEVEL ( 'unclassified' ) ;
#180 = EDGE_LOOP ( 'NONE', ( #71 ) ) ;
#181 = AXIS2_PLACEMENT_3D ( 'NONE', #61, #189, #162 ) ;
#182 = CARTESIAN_POINT ( 'NONE',  ( 3.142333204958820651E-14, -2.085804737857224477E-31, 9.000000000000001776 ) ) ;
#183 = EDGE_CURVE ( 'NONE', #127, #127, #197, .T. ) ;
#184 = CARTESIAN_POINT ( 'NONE',  ( 1.080415223868946798E-15, -3.789586474202899524E-17, 0.3094432187991963956 ) ) ;
#185 = CYLINDRICAL_SURFACE ( 'NONE', #86, 0.5149999999999999023 ) ;
#186 = LOCAL_TIME ( 7, 14, 56.00000000000000000, #198 ) ;
#187 = ORIENTED_EDGE ( 'NONE', *, *, #64, .F. ) ;
#188 = DIRECTION ( 'NONE',  ( 0.0000000000000000000, 0.0000000000000000000, 1.000000000000000000 ) ) ;
#189 = DIRECTION ( 'NONE',  ( -3.491481338843133355E-15, 1.224646799147353207E-16, -1.000000000000000000 ) ) ;
#190 = PRODUCT_DEFINITION_SHAPE ( 'NONE', 'NONE',  #98 ) ;
#191 = CARTESIAN_POINT ( 'NONE',  ( 1.040461438975253740E-13, 0.7499999999999962252, 29.80000000000000071 ) ) ;
#192 = AXIS2_PLACEMENT_3D ( 'NONE', #182, #14, #48 ) ;
#193 = APPROVAL ( #11, 'UNSPECIFIED' ) ;
#194 =( NAMED_UNIT ( * ) PLANE_ANGLE_UNIT ( ) SI_UNIT ( $, .RADIAN. ) );
#195 = CALENDAR_DATE ( 2021, 8, 10 ) ;
#196 = SHAPE_DEFINITION_REPRESENTATION ( #190, #21 ) ;
#197 = CIRCLE ( 'NONE', #176, 0.5150000000000009015 ) ;
#198 = COORDINATED_UNIVERSAL_TIME_OFFSET ( 1, 0, .AHEAD. ) ;
#199 = ORIENTED_EDGE ( 'NONE', *, *, #170, .F. ) ;
#200 = FACE_OUTER_BOUND ( 'NONE', #166, .T. ) ;
#201 = ORIENTED_EDGE ( 'NONE', *, *, #80, .F. ) ;
#202 = PRODUCT_DEFINITION_FORMATION_WITH_SPECIFIED_SOURCE ( 'ANY', '', #75, .NOT_KNOWN. ) ;
#203 = DIRECTION ( 'NONE',  ( 3.739669794926678821E-31, 1.000000000000000000, 1.052623468432530621E-16 ) ) ;
#204 = PLANE ( 'NONE',  #192 ) ;
#205 = DIRECTION ( 'NONE',  ( 3.491481338843133355E-15, -1.224646799147353207E-16, 1.000000000000000000 ) ) ;
#206 = CALENDAR_DATE ( 2021, 8, 10 ) ;
#207 = DIRECTION ( 'NONE',  ( -3.491481338843133355E-15, 1.224646799147353207E-16, -1.000000000000000000 ) ) ;
#208 = APPROVAL ( #76, 'UNSPECIFIED' ) ;
#209 = CARTESIAN_POINT ( 'NONE',  ( 3.284447647163860830E-14, 0.7499999999999963363, 9.407031939778686791 ) ) ;
#210 = FACE_OUTER_BOUND ( 'NONE', #32, .T. ) ;
#211 = CONICAL_SURFACE ( 'NONE', #63, 0.7499999999999975575, 0.5235987755982929315 ) ;
#212 = EDGE_LOOP ( 'NONE', ( #34 ) ) ;
#213 = APPROVAL_ROLE ( '' ) ;
#214 = DIRECTION ( 'NONE',  ( 0.0000000000000000000, 1.000000000000000000, 0.0000000000000000000 ) ) ;
#215 = FACE_OUTER_BOUND ( 'NONE', #15, .T. ) ;
#216 = ADVANCED_FACE ( 'NONE', ( #60, #93 ), #145, .T. ) ;
#217 = DIRECTION ( 'NONE',  ( 0.0000000000000000000, 1.000000000000000000, 0.0000000000000000000 ) ) ;
#218 = ORGANIZATION ( 'UNSPECIFIED', 'UNSPECIFIED', '' ) ;
#219 = FACE_OUTER_BOUND ( 'NONE', #154, .T. ) ;
#220 = EDGE_LOOP ( 'NONE', ( #73 ) ) ;
#221 = PERSON_AND_ORGANIZATION ( #175, #218 ) ;
#222 = DESIGN_CONTEXT ( 'detailed design', #58, 'design' ) ;
#223 = CARTESIAN_POINT ( 'NONE',  ( 3.142333204958820651E-14, 0.5149999999999997913, 9.000000000000001776 ) ) ;
ENDSEC;
END-ISO-10303-21;
