ISO-10303-21;
HEADER;
FILE_DESCRIPTION (( 'STEP AP203' ),
    '1' );
FILE_NAME ('55354.step',
    '2021-10-08T05:14:56',
    ( '' ),
    ( '' ),
    'SwSTEP 2.0',
    'SolidWorks 2019',
    '' );
FILE_SCHEMA (( 'CONFIG_CONTROL_DESIGN' ));
ENDSEC;

DATA;
#1 = ORIENTED_EDGE ( 'NONE', *, *, #185, .F. ) ;
#2 = COORDINATED_UNIVERSAL_TIME_OFFSET ( 1, 0, .AHEAD. ) ;
#3 = APPROVAL_DATE_TIME ( #39, #160 ) ;
#4 = CC_DESIGN_PERSON_AND_ORGANIZATION_ASSIGNMENT ( #97, #93, ( #44 ) ) ;
#5 = EDGE_LOOP ( 'NONE', ( #199 ) ) ;
#6 = CIRCLE ( 'NONE', #34, 0.5099999999999988987 ) ;
#7 = CONICAL_SURFACE ( 'NONE', #139, 0.5099999999999988987, 1.029744258676649649 ) ;
#8 = APPROVAL_STATUS ( 'not_yet_approved' ) ;
#9 = ORIENTED_EDGE ( 'NONE', *, *, #88, .T. ) ;
#10 = FACE_OUTER_BOUND ( 'NONE', #49, .T. ) ;
#11 = DIRECTION ( 'NONE',  ( 3.491481338843133355E-15, -1.224646799147353207E-16, 1.000000000000000000 ) ) ;
#12 = AXIS2_PLACEMENT_3D ( 'NONE', #117, #66, #83 ) ;
#13 = LOCAL_TIME ( 7, 14, 56.00000000000000000, #104 ) ;
#14 = DIRECTION ( 'NONE',  ( -3.491481338843133355E-15, 1.224646799147353207E-16, -1.000000000000000000 ) ) ;
#15 = CARTESIAN_POINT ( 'NONE',  ( 3.287471358700138334E-14, -1.153089730691413329E-15, 9.415692193816530775 ) ) ;
#16 = DIRECTION ( 'NONE',  ( 3.776333224288706011E-31, 1.000000000000000000, 1.062943306358340005E-16 ) ) ;
#17 = VERTEX_POINT ( 'NONE', #37 ) ;
#18 = DIRECTION ( 'NONE',  ( -3.491481338843133355E-15, 1.224646799147353207E-16, -1.000000000000000000 ) ) ;
#19 = PERSON_AND_ORGANIZATION ( #116, #35 ) ;
#20 = CC_DESIGN_PERSON_AND_ORGANIZATION_ASSIGNMENT ( #92, #90, ( #163 ) ) ;
#21 = SHAPE_DEFINITION_REPRESENTATION ( #158, #119 ) ;
#22 = COORDINATED_UNIVERSAL_TIME_OFFSET ( 1, 0, .AHEAD. ) ;
#23 = AXIS2_PLACEMENT_3D ( 'NONE', #110, #188, #50 ) ;
#24 = AXIS2_PLACEMENT_3D ( 'NONE', #214, #71, #144 ) ;
#25 = DIRECTION ( 'NONE',  ( -3.491481338843133355E-15, 1.224646799147353207E-16, -1.000000000000000000 ) ) ;
#26 = FACE_OUTER_BOUND ( 'NONE', #98, .T. ) ;
#27 = FACE_BOUND ( 'NONE', #127, .T. ) ;
#28 = AXIS2_PLACEMENT_3D ( 'NONE', #91, #18, #182 ) ;
#29 = FACE_OUTER_BOUND ( 'NONE', #85, .T. ) ;
#30 = MANIFOLD_SOLID_BREP ( 'Corps-Déplacer/Copier1[1]', #192 ) ;
#31 = AXIS2_PLACEMENT_3D ( 'NONE', #130, #11, #206 ) ;
#32 = DIRECTION ( 'NONE',  ( 0.0000000000000000000, 1.000000000000000000, 0.0000000000000000000 ) ) ;
#33 = DATE_AND_TIME ( #69, #170 ) ;
#34 = AXIS2_PLACEMENT_3D ( 'NONE', #99, #14, #16 ) ;
#35 = ORGANIZATION ( 'UNSPECIFIED', 'UNSPECIFIED', '' ) ;
#36 = CIRCLE ( 'NONE', #28, 0.7499999999999975575 ) ;
#37 = CARTESIAN_POINT ( 'NONE',  ( 1.040461438975253740E-13, 0.7499999999999962252, 29.80000000000000071 ) ) ;
#38 = APPLICATION_PROTOCOL_DEFINITION ( 'international standard', 'config_control_design', 1994, #135 ) ;
#39 = DATE_AND_TIME ( #200, #13 ) ;
#40 = DATE_AND_TIME ( #184, #133 ) ;
#41 = PERSON_AND_ORGANIZATION ( #116, #35 ) ;
#42 = ADVANCED_FACE ( 'NONE', ( #203, #10 ), #52, .T. ) ;
#43 = CARTESIAN_POINT ( 'NONE',  ( 1.040461438975253740E-13, -3.649447461459112464E-15, 29.80000000000000071 ) ) ;
#44 = SECURITY_CLASSIFICATION ( '', '', #48 ) ;
#45 = PERSON_AND_ORGANIZATION_ROLE ( 'design_supplier' ) ;
#46 = CARTESIAN_POINT ( 'NONE',  ( 1.069925755676044318E-15, -3.752794372511608250E-17, 0.3064389157040585121 ) ) ;
#47 = CC_DESIGN_PERSON_AND_ORGANIZATION_ASSIGNMENT ( #41, #45, ( #157 ) ) ;
#48 = SECURITY_CLASSIFICATION_LEVEL ( 'unclassified' ) ;
#49 = EDGE_LOOP ( 'NONE', ( #115 ) ) ;
#50 = DIRECTION ( 'NONE',  ( 0.0000000000000000000, 1.000000000000000000, 0.0000000000000000000 ) ) ;
#51 = CC_DESIGN_DATE_AND_TIME_ASSIGNMENT ( #40, #204, ( #44 ) ) ;
#52 = CYLINDRICAL_SURFACE ( 'NONE', #131, 0.7499999999999986677 ) ;
#53 = AXIS2_PLACEMENT_3D ( 'NONE', #179, #121, #195 ) ;
#54 =( LENGTH_UNIT ( ) NAMED_UNIT ( * ) SI_UNIT ( .MILLI., .METRE. ) );
#55 = DIRECTION ( 'NONE',  ( 4.275831445896958607E-31, 1.000000000000000000, 1.224646799147353207E-16 ) ) ;
#56 = PLANE ( 'NONE',  #223 ) ;
#57 = CC_DESIGN_APPROVAL ( #160, ( #163 ) ) ;
#58 = EDGE_CURVE ( 'NONE', #72, #72, #196, .T. ) ;
#59 = VERTEX_POINT ( 'NONE', #197 ) ;
#60 = LOCAL_TIME ( 7, 14, 56.00000000000000000, #216 ) ;
#61 = PERSON_AND_ORGANIZATION_ROLE ( 'creator' ) ;
#62 = DIRECTION ( 'NONE',  ( 3.491481338843133355E-15, -1.224646799147353207E-16, 1.000000000000000000 ) ) ;
#63 = ADVANCED_FACE ( 'NONE', ( #96 ), #176, .T. ) ;
#64 = APPROVAL_ROLE ( '' ) ;
#65 = DIRECTION ( 'NONE',  ( 0.0000000000000000000, -1.000000000000000000, 0.0000000000000000000 ) ) ;
#66 = DIRECTION ( 'NONE',  ( -3.491481338843133355E-15, 1.224646799147353207E-16, -1.000000000000000000 ) ) ;
#67 = DIRECTION ( 'NONE',  ( -3.491481338843133355E-15, 1.224646799147353207E-16, -1.000000000000000000 ) ) ;
#68 = PRODUCT_RELATED_PRODUCT_CATEGORY ( 'detail', '', ( #94 ) ) ;
#69 = CALENDAR_DATE ( 2021, 8, 10 ) ;
#70 = DATE_TIME_ROLE ( 'creation_date' ) ;
#71 = DIRECTION ( 'NONE',  ( 0.0000000000000000000, 0.0000000000000000000, 1.000000000000000000 ) ) ;
#72 = VERTEX_POINT ( 'NONE', #74 ) ;
#73 = ORIENTED_EDGE ( 'NONE', *, *, #207, .F. ) ;
#74 = CARTESIAN_POINT ( 'NONE',  ( 3.142333204958820020E-14, 0.5099999999999987876, 9.000000000000000000 ) ) ;
#75 = ORIENTED_EDGE ( 'NONE', *, *, #185, .T. ) ;
#76 = APPROVAL_DATE_TIME ( #81, #106 ) ;
#77 = EDGE_LOOP ( 'NONE', ( #1 ) ) ;
#78 = CONICAL_SURFACE ( 'NONE', #105, 0.5500000000000000444, 0.7853981633974510546 ) ;
#79 = APPROVAL_PERSON_ORGANIZATION ( #213, #106, #64 ) ;
#80 = APPROVAL_ROLE ( '' ) ;
#81 = DATE_AND_TIME ( #149, #187 ) ;
#82 = FACE_OUTER_BOUND ( 'NONE', #194, .T. ) ;
#83 = DIRECTION ( 'NONE',  ( 0.0000000000000000000, 1.000000000000000000, 0.0000000000000000000 ) ) ;
#84 = CIRCLE ( 'NONE', #211, 0.7499999999999998890 ) ;
#85 = EDGE_LOOP ( 'NONE', ( #156 ) ) ;
#86 = CARTESIAN_POINT ( 'NONE',  ( 0.0000000000000000000, 0.0000000000000000000, 0.0000000000000000000 ) ) ;
#87 = EDGE_CURVE ( 'NONE', #17, #17, #84, .T. ) ;
#88 = EDGE_CURVE ( 'NONE', #161, #161, #217, .T. ) ;
#89 = DIRECTION ( 'NONE',  ( 4.275831445896959482E-31, 1.000000000000000000, 1.224646799147353207E-16 ) ) ;
#90 = PERSON_AND_ORGANIZATION_ROLE ( 'creator' ) ;
#91 = CARTESIAN_POINT ( 'NONE',  ( 3.287471358700138334E-14, -1.153089730691413329E-15, 9.415692193816530775 ) ) ;
#92 = PERSON_AND_ORGANIZATION ( #116, #35 ) ;
#93 = PERSON_AND_ORGANIZATION_ROLE ( 'classification_officer' ) ;
#94 = PRODUCT ( '55354', '55354', '', ( #126 ) ) ;
#95 = CC_DESIGN_PERSON_AND_ORGANIZATION_ASSIGNMENT ( #181, #198, ( #94 ) ) ;
#96 = FACE_OUTER_BOUND ( 'NONE', #77, .T. ) ;
#97 = PERSON_AND_ORGANIZATION ( #116, #35 ) ;
#98 = EDGE_LOOP ( 'NONE', ( #75 ) ) ;
#99 = CARTESIAN_POINT ( 'NONE',  ( 1.069925755676044318E-15, -3.752794372511608250E-17, 0.3064389157040585121 ) ) ;
#100 = APPROVAL_PERSON_ORGANIZATION ( #19, #160, #165 ) ;
#101 = CYLINDRICAL_SURFACE ( 'NONE', #53, 0.5099999999999993427 ) ;
#102 = CC_DESIGN_PERSON_AND_ORGANIZATION_ASSIGNMENT ( #111, #61, ( #157 ) ) ;
#103 = FACE_OUTER_BOUND ( 'NONE', #5, .T. ) ;
#104 = COORDINATED_UNIVERSAL_TIME_OFFSET ( 1, 0, .AHEAD. ) ;
#105 = AXIS2_PLACEMENT_3D ( 'NONE', #153, #173, #32 ) ;
#106 = APPROVAL ( #108, 'UNSPECIFIED' ) ;
#107 = MANIFOLD_SOLID_BREP ( 'Corps-Déplacer/Copier1[2]', #186 ) ;
#108 = APPROVAL_STATUS ( 'not_yet_approved' ) ;
#109 = ADVANCED_FACE ( 'NONE', ( #27, #103 ), #208, .T. ) ;
#110 = CARTESIAN_POINT ( 'NONE',  ( 3.142333204958820020E-14, -1.102182119232617714E-15, 9.000000000000000000 ) ) ;
#111 = PERSON_AND_ORGANIZATION ( #116, #35 ) ;
#112 = CARTESIAN_POINT ( 'NONE',  ( 3.142333204958820020E-14, -1.102182119232617714E-15, 9.000000000000000000 ) ) ;
#113 = FACE_BOUND ( 'NONE', #166, .T. ) ;
#114 = APPROVAL ( #8, 'UNSPECIFIED' ) ;
#115 = ORIENTED_EDGE ( 'NONE', *, *, #87, .T. ) ;
#116 = PERSON ( 'UNSPECIFIED', 'UNSPECIFIED', 'UNSPECIFIED', ('UNSPECIFIED'), ('UNSPECIFIED'), ('UNSPECIFIED') ) ;
#117 = CARTESIAN_POINT ( 'NONE',  ( 1.047444401652940007E-13, -3.673940397442059178E-15, 30.00000000000000000 ) ) ;
#118 = APPLICATION_CONTEXT ( 'configuration controlled 3d designs of mechanical parts and assemblies' ) ;
#119 = ADVANCED_BREP_SHAPE_REPRESENTATION ( '55354', ( #30, #107, #24 ), #125 ) ;
#120 = DIRECTION ( 'NONE',  ( -3.491481338843133355E-15, 1.224646799147353207E-16, -1.000000000000000000 ) ) ;
#121 = DIRECTION ( 'NONE',  ( -3.491481338843133355E-15, 1.224646799147353207E-16, -1.000000000000000000 ) ) ;
#122 = ADVANCED_FACE ( 'NONE', ( #190, #113 ), #78, .T. ) ;
#123 = CIRCLE ( 'NONE', #23, 0.5099999999999997868 ) ;
#124 = APPLICATION_PROTOCOL_DEFINITION ( 'international standard', 'config_control_design', 1994, #118 ) ;
#125 =( GEOMETRIC_REPRESENTATION_CONTEXT ( 3 ) GLOBAL_UNCERTAINTY_ASSIGNED_CONTEXT ( ( #138 ) ) GLOBAL_UNIT_ASSIGNED_CONTEXT ( ( #54, #180, #143 ) ) REPRESENTATION_CONTEXT ( 'NONE', 'WORKASPACE' ) );
#126 = MECHANICAL_CONTEXT ( 'NONE', #118, 'mechanical' ) ;
#127 = EDGE_LOOP ( 'NONE', ( #148 ) ) ;
#128 = ADVANCED_FACE ( 'NONE', ( #82 ), #7, .T. ) ;
#129 = APPROVAL_STATUS ( 'not_yet_approved' ) ;
#130 = CARTESIAN_POINT ( 'NONE',  ( 3.142333204958820020E-14, 3.824387445787719657E-33, 9.000000000000000000 ) ) ;
#131 = AXIS2_PLACEMENT_3D ( 'NONE', #86, #67, #89 ) ;
#132 = DIRECTION ( 'NONE',  ( 3.491481338843133355E-15, -1.224646799147353207E-16, 1.000000000000000000 ) ) ;
#133 = LOCAL_TIME ( 7, 14, 56.00000000000000000, #168 ) ;
#134 = EDGE_LOOP ( 'NONE', ( #221 ) ) ;
#135 = APPLICATION_CONTEXT ( 'configuration controlled 3d designs of mechanical parts and assemblies' ) ;
#136 = EDGE_CURVE ( 'NONE', #59, #59, #6, .T. ) ;
#137 = ORIENTED_EDGE ( 'NONE', *, *, #136, .T. ) ;
#138 = UNCERTAINTY_MEASURE_WITH_UNIT (LENGTH_MEASURE( 1.000000000000000082E-05 ), #54, 'distance_accuracy_value', 'NONE');
#139 = AXIS2_PLACEMENT_3D ( 'NONE', #46, #62, #191 ) ;
#140 = CC_DESIGN_SECURITY_CLASSIFICATION ( #44, ( #157 ) ) ;
#141 = CC_DESIGN_APPROVAL ( #114, ( #44 ) ) ;
#142 = CARTESIAN_POINT ( 'NONE',  ( 1.047444401652940007E-13, 0.5499999999999963807, 30.00000000000000000 ) ) ;
#143 =( NAMED_UNIT ( * ) SI_UNIT ( $, .STERADIAN. ) SOLID_ANGLE_UNIT ( ) );
#144 = DIRECTION ( 'NONE',  ( 1.000000000000000000, 0.0000000000000000000, 0.0000000000000000000 ) ) ;
#145 = AXIS2_PLACEMENT_3D ( 'NONE', #112, #25, #155 ) ;
#146 = CARTESIAN_POINT ( 'NONE',  ( 3.142333204958820020E-14, 0.5099999999999987876, 9.000000000000000000 ) ) ;
#147 = CARTESIAN_POINT ( 'NONE',  ( 1.047444401652940007E-13, 4.124339402320052999E-33, 30.00000000000000000 ) ) ;
#148 = ORIENTED_EDGE ( 'NONE', *, *, #58, .F. ) ;
#149 = CALENDAR_DATE ( 2021, 8, 10 ) ;
#150 = DATE_AND_TIME ( #152, #60 ) ;
#151 = PLANE ( 'NONE',  #169 ) ;
#152 = CALENDAR_DATE ( 2021, 8, 10 ) ;
#153 = CARTESIAN_POINT ( 'NONE',  ( 1.047444401652940007E-13, -3.673940397442059178E-15, 30.00000000000000000 ) ) ;
#154 = CC_DESIGN_DATE_AND_TIME_ASSIGNMENT ( #33, #70, ( #163 ) ) ;
#155 = DIRECTION ( 'NONE',  ( 0.0000000000000000000, 1.000000000000000000, 0.0000000000000000000 ) ) ;
#156 = ORIENTED_EDGE ( 'NONE', *, *, #136, .F. ) ;
#157 = PRODUCT_DEFINITION_FORMATION_WITH_SPECIFIED_SOURCE ( 'ANY', '', #94, .NOT_KNOWN. ) ;
#158 = PRODUCT_DEFINITION_SHAPE ( 'NONE', 'NONE',  #163 ) ;
#159 = CARTESIAN_POINT ( 'NONE',  ( 3.142333204958820020E-14, 3.824387445787719657E-33, 9.000000000000000000 ) ) ;
#160 = APPROVAL ( #129, 'UNSPECIFIED' ) ;
#161 = VERTEX_POINT ( 'NONE', #142 ) ;
#162 = CARTESIAN_POINT ( 'NONE',  ( 3.287471358700138334E-14, 0.7499999999999963363, 9.415692193816530775 ) ) ;
#163 = PRODUCT_DEFINITION ( 'UNKNOWN', '', #157, #209 ) ;
#164 = ORIENTED_EDGE ( 'NONE', *, *, #88, .F. ) ;
#165 = APPROVAL_ROLE ( '' ) ;
#166 = EDGE_LOOP ( 'NONE', ( #9 ) ) ;
#167 = VERTEX_POINT ( 'NONE', #162 ) ;
#168 = COORDINATED_UNIVERSAL_TIME_OFFSET ( 1, 0, .AHEAD. ) ;
#169 = AXIS2_PLACEMENT_3D ( 'NONE', #159, #132, #205 ) ;
#170 = LOCAL_TIME ( 7, 14, 56.00000000000000000, #2 ) ;
#171 = CC_DESIGN_APPROVAL ( #106, ( #157 ) ) ;
#172 = PERSON_AND_ORGANIZATION ( #116, #35 ) ;
#173 = DIRECTION ( 'NONE',  ( -3.491481338843133355E-15, 1.224646799147353207E-16, -1.000000000000000000 ) ) ;
#174 = ADVANCED_FACE ( 'NONE', ( #210 ), #151, .F. ) ;
#175 = EDGE_LOOP ( 'NONE', ( #164 ) ) ;
#176 = PLANE ( 'NONE',  #31 ) ;
#177 = EDGE_LOOP ( 'NONE', ( #73 ) ) ;
#178 = FACE_OUTER_BOUND ( 'NONE', #175, .T. ) ;
#179 = CARTESIAN_POINT ( 'NONE',  ( 0.0000000000000000000, 0.0000000000000000000, 0.0000000000000000000 ) ) ;
#180 =( NAMED_UNIT ( * ) PLANE_ANGLE_UNIT ( ) SI_UNIT ( $, .RADIAN. ) );
#181 = PERSON_AND_ORGANIZATION ( #116, #35 ) ;
#182 = DIRECTION ( 'NONE',  ( 0.0000000000000000000, 1.000000000000000000, 0.0000000000000000000 ) ) ;
#183 = APPROVAL_PERSON_ORGANIZATION ( #172, #114, #80 ) ;
#184 = CALENDAR_DATE ( 2021, 8, 10 ) ;
#185 = EDGE_CURVE ( 'NONE', #212, #212, #123, .T. ) ;
#186 = CLOSED_SHELL ( 'NONE', ( #128, #189, #63 ) ) ;
#187 = LOCAL_TIME ( 7, 14, 56.00000000000000000, #22 ) ;
#188 = DIRECTION ( 'NONE',  ( -3.491481338843133355E-15, 1.224646799147353207E-16, -1.000000000000000000 ) ) ;
#189 = ADVANCED_FACE ( 'NONE', ( #29, #26 ), #101, .T. ) ;
#190 = FACE_OUTER_BOUND ( 'NONE', #215, .T. ) ;
#191 = DIRECTION ( 'NONE',  ( -3.776333224288706011E-31, -1.000000000000000000, -1.062943306358340005E-16 ) ) ;
#192 = CLOSED_SHELL ( 'NONE', ( #174, #109, #42, #122, #201 ) ) ;
#193 = DIRECTION ( 'NONE',  ( -3.491481338843133355E-15, 1.224646799147353207E-16, -1.000000000000000000 ) ) ;
#194 = EDGE_LOOP ( 'NONE', ( #137 ) ) ;
#195 = DIRECTION ( 'NONE',  ( 4.275831445896958607E-31, 1.000000000000000000, 1.224646799147353454E-16 ) ) ;
#196 = CIRCLE ( 'NONE', #145, 0.5099999999999997868 ) ;
#197 = CARTESIAN_POINT ( 'NONE',  ( 1.069925755676044515E-15, 0.5099999999999988987, 0.3064389157040585676 ) ) ;
#198 = PERSON_AND_ORGANIZATION_ROLE ( 'design_owner' ) ;
#199 = ORIENTED_EDGE ( 'NONE', *, *, #207, .T. ) ;
#200 = CALENDAR_DATE ( 2021, 8, 10 ) ;
#201 = ADVANCED_FACE ( 'NONE', ( #178 ), #56, .F. ) ;
#202 = APPROVAL_DATE_TIME ( #150, #114 ) ;
#203 = FACE_OUTER_BOUND ( 'NONE', #177, .T. ) ;
#204 = DATE_TIME_ROLE ( 'classification_date' ) ;
#205 = DIRECTION ( 'NONE',  ( -4.275831445896958607E-31, -1.000000000000000000, -1.224646799147353207E-16 ) ) ;
#206 = DIRECTION ( 'NONE',  ( -4.275831445896958607E-31, -1.000000000000000000, -1.224646799147353207E-16 ) ) ;
#207 = EDGE_CURVE ( 'NONE', #167, #167, #36, .T. ) ;
#208 = CONICAL_SURFACE ( 'NONE', #222, 0.7499999999999975575, 0.5235987755982942637 ) ;
#209 = DESIGN_CONTEXT ( 'detailed design', #135, 'design' ) ;
#210 = FACE_OUTER_BOUND ( 'NONE', #134, .T. ) ;
#211 = AXIS2_PLACEMENT_3D ( 'NONE', #43, #193, #220 ) ;
#212 = VERTEX_POINT ( 'NONE', #146 ) ;
#213 = PERSON_AND_ORGANIZATION ( #116, #35 ) ;
#214 = CARTESIAN_POINT ( 'NONE',  ( 0.0000000000000000000, 0.0000000000000000000, 0.0000000000000000000 ) ) ;
#215 = EDGE_LOOP ( 'NONE', ( #219 ) ) ;
#216 = COORDINATED_UNIVERSAL_TIME_OFFSET ( 1, 0, .AHEAD. ) ;
#217 = CIRCLE ( 'NONE', #12, 0.5500000000000000444 ) ;
#218 = DIRECTION ( 'NONE',  ( 3.491481338843133355E-15, -1.224646799147353207E-16, 1.000000000000000000 ) ) ;
#219 = ORIENTED_EDGE ( 'NONE', *, *, #87, .F. ) ;
#220 = DIRECTION ( 'NONE',  ( 0.0000000000000000000, 1.000000000000000000, 0.0000000000000000000 ) ) ;
#221 = ORIENTED_EDGE ( 'NONE', *, *, #58, .T. ) ;
#222 = AXIS2_PLACEMENT_3D ( 'NONE', #15, #218, #65 ) ;
#223 = AXIS2_PLACEMENT_3D ( 'NONE', #147, #120, #55 ) ;
ENDSEC;
END-ISO-10303-21;
